  0
SECTION
  2
HEADER
  9
$ACADVER
  1
AC1014
  9
$HANDSEED
  5
FFFF
  9
$INSUNITS
 70
     4
  9
$MEASUREMENT
 70
     1
  0
ENDSEC
  0
SECTION
  2
TABLES
  0
TABLE
  2
VPORT
  5
8
330
0
100
AcDbSymbolTable
 70
     4
  0
VPORT
  5
2E
330
8
100
AcDbSymbolTableRecord
100
AcDbViewportTableRecord
  2
*ACTIVE
 70
     0
 10
0.0
 20
0.0
 11
1.0
 21
1.0
 12
210.0
 22
148.5
 13
0.0
 23
0.0
 14
10.0
 24
10.0
 15
10.0
 25
10.0
 16
0.0
 26
0.0
 36
1.0
 17
0.0
 27
0.0
 37
0.0
 40
341.0
 41
1.24
 42
50.0
 43
0.0
 44
0.0
 50
0.0
 51
0.0
 71
     0
 72
   100
 73
     1
 74
     3
 75
     0
 76
     0
 77
     0
 78
     0
  0
ENDTAB
  0
TABLE
  2
LTYPE
  5
5
330
0
100
AcDbSymbolTable
 70
     1
  0
LTYPE
  5
14
330
5
100
AcDbSymbolTableRecord
100
AcDbLinetypeTableRecord
  2
BYBLOCK
 70
     0
  3

 72
    65
 73
     0
 40
0.0
  0
LTYPE
  5
15
330
5
100
AcDbSymbolTableRecord
100
AcDbLinetypeTableRecord
  2
BYLAYER
 70
     0
  3

 72
    65
 73
     0
 40
0.0
  0
LTYPE
  5
16
330
5
100
AcDbSymbolTableRecord
100
AcDbLinetypeTableRecord
  2
CONTINUOUS
 70
     0
  3
Solid line
 72
    65
 73
     0
 40
0.0
  0
ENDTAB
  0
TABLE
  2
LAYER
  5
2
100
AcDbSymbolTable
 70
2
  0
LAYER
  5
50
100
AcDbSymbolTableRecord
100
AcDbLayerTableRecord
  2
0
 70
0
  6
CONTINUOUS
  0
LAYER
  5
51
100
AcDbSymbolTableRecord
100
AcDbLayerTableRecord
  2
Layer_1
 70
0
  6
CONTINUOUS
  0
ENDTAB
  0
TABLE
  2
STYLE
  5
3
330
0
100
AcDbSymbolTable
 70
     1
  0
STYLE
  5
11
330
3
100
AcDbSymbolTableRecord
100
AcDbTextStyleTableRecord
  2
STANDARD
 70
     0
 40
0.0
 41
1.0
 50
0.0
 71
     0
 42
2.5
  3
txt
  4

  0
ENDTAB
  0
TABLE
  2
VIEW
  5
6
330
0
100
AcDbSymbolTable
 70
     0
  0
ENDTAB
  0
TABLE
  2
UCS
  5
7
330
0
100
AcDbSymbolTable
 70
     0
  0
ENDTAB
  0
TABLE
  2
APPID
  5
9
330
0
100
AcDbSymbolTable
 70
     2
  0
APPID
  5
12
330
9
100
AcDbSymbolTableRecord
100
AcDbRegAppTableRecord
  2
ACAD
 70
     0
  0
ENDTAB
  0
TABLE
  2
DIMSTYLE
  5
A
330
0
100
AcDbSymbolTable
 70
     1
  0
DIMSTYLE
105
27
330
A
100
AcDbSymbolTableRecord
100
AcDbDimStyleTableRecord
  2
ISO-25
 70
     0
  3

  4

  5

  6

  7

 40
1.0
 41
2.5
 42
0.625
 43
3.75
 44
1.25
 45
0.0
 46
0.0
 47
0.0
 48
0.0
140
2.5
141
2.5
142
0.0
143
0.03937007874016
144
1.0
145
0.0
146
1.0
147
0.625
 71
     0
 72
     0
 73
     0
 74
     0
 75
     0
 76
     0
 77
     1
 78
     8
170
     0
171
     3
172
     1
173
     0
174
     0
175
     0
176
     0
177
     0
178
     0
270
     2
271
     2
272
     2
273
     2
274
     3
340
11
275
     0
280
     0
281
     0
282
     0
283
     0
284
     8
285
     0
286
     0
287
     3
288
     0
  0
ENDTAB
  0
TABLE
  2
BLOCK_RECORD
  5
1
330
0
100
AcDbSymbolTable
 70
     1
  0
BLOCK_RECORD
  5
1F
330
1
100
AcDbSymbolTableRecord
100
AcDbBlockTableRecord
  2
*MODEL_SPACE
  0
BLOCK_RECORD
  5
1B
330
1
100
AcDbSymbolTableRecord
100
AcDbBlockTableRecord
  2
*PAPER_SPACE
  0
ENDTAB
  0
ENDSEC
  0
SECTION
  2
BLOCKS
  0
BLOCK
  5
20
330
1F
100
AcDbEntity
  8
0
100
AcDbBlockBegin
  2
*MODEL_SPACE
 70
     0
 10
0.0
 20
0.0
 30
0.0
  3
*MODEL_SPACE
  1

  0
ENDBLK
  5
21
330
1F
100
AcDbEntity
  8
0
100
AcDbBlockEnd
  0
BLOCK
  5
1C
330
1B
100
AcDbEntity
 67
     1
  8
0
100
AcDbBlockBegin
  2
*PAPER_SPACE
  1

  0
ENDBLK
  5
1D
330
1B
100
AcDbEntity
 67
     1
  8
0
100
AcDbBlockEnd
  0
ENDSEC
  0
SECTION
  2
ENTITIES
  0
LWPOLYLINE
  5
100
100
AcDbEntity
  8
Layer_1
 62
7
100
AcDbPolyline
 90
4
 70
1
 10
34.949158
 20
264.081497
 30
0.0
 10
178.004928
 20
264.081497
 30
0.0
 10
178.004928
 20
45.834457
 30
0.0
 10
34.949158
 20
45.834457
 30
0.0
  0
LWPOLYLINE
  5
101
100
AcDbEntity
  8
Layer_1
 62
7
100
AcDbPolyline
 90
4
 70
1
 10
44.325253
 20
174.672390
 30
0.0
 10
92.347939
 20
174.672390
 30
0.0
 10
92.347939
 20
141.871956
 30
0.0
 10
44.325253
 20
141.871956
 30
0.0
  0
LWPOLYLINE
  5
102
100
AcDbEntity
  8
Layer_1
 62
7
100
AcDbPolyline
 90
4
 70
1
 10
44.457607
 20
228.985947
 30
0.0
 10
92.480293
 20
228.985947
 30
0.0
 10
92.480293
 20
196.185513
 30
0.0
 10
44.457607
 20
196.185513
 30
0.0
  0
LWPOLYLINE
  5
103
100
AcDbEntity
  8
Layer_1
 62
7
100
AcDbPolyline
 90
4
 70
1
 10
117.260690
 20
175.167410
 30
0.0
 10
165.283376
 20
175.167410
 30
0.0
 10
165.283376
 20
142.366976
 30
0.0
 10
117.260690
 20
142.366976
 30
0.0
  0
LWPOLYLINE
  5
104
100
AcDbEntity
  8
Layer_1
 62
7
100
AcDbPolyline
 90
4
 70
1
 10
116.722990
 20
229.480972
 30
0.0
 10
164.745676
 20
229.480972
 30
0.0
 10
164.745676
 20
196.680538
 30
0.0
 10
116.722990
 20
196.680538
 30
0.0
  0
SPLINE
  5
105
100
AcDbEntity
  8
Layer_1
 62
7
100
AcDbSpline
 70
8
 71
3
 72
8
 73
4
 74
0
 40
0
 40
0
 40
0
 40
0
 40
1
 40
1
 40
1
 40
1
 10
60.607633
 20
250.325370
 30
0.0
 10
60.082141
 20
249.906444
 30
0.0
 10
59.540112
 20
249.590414
 30
0.0
 10
58.981547
 20
249.377278
 30
0.0
  0
SPLINE
  5
106
100
AcDbEntity
  8
Layer_1
 62
7
100
AcDbSpline
 70
8
 71
3
 72
8
 73
4
 74
0
 40
0
 40
0
 40
0
 40
0
 40
1
 40
1
 40
1
 40
1
 10
58.981547
 20
249.377278
 30
0.0
 10
58.422981
 20
249.167816
 30
0.0
 10
57.849717
 20
249.063085
 30
0.0
 10
57.261755
 20
249.063085
 30
0.0
  0
SPLINE
  5
107
100
AcDbEntity
  8
Layer_1
 62
7
100
AcDbSpline
 70
8
 71
3
 72
8
 73
4
 74
0
 40
0
 40
0
 40
0
 40
0
 40
1
 40
1
 40
1
 40
1
 10
57.261755
 20
249.063085
 30
0.0
 10
56.468005
 20
249.063085
 30
0.0
 10
55.745912
 20
249.232125
 30
0.0
 10
55.095476
 20
249.570204
 30
0.0
  0
SPLINE
  5
108
100
AcDbEntity
  8
Layer_1
 62
7
100
AcDbSpline
 70
8
 71
3
 72
8
 73
4
 74
0
 40
0
 40
0
 40
0
 40
0
 40
1
 40
1
 40
1
 40
1
 10
55.095476
 20
249.570204
 30
0.0
 10
54.448716
 20
249.911958
 30
0.0
 10
53.959972
 20
250.404376
 30
0.0
 10
53.629243
 20
251.047460
 30
0.0
  0
SPLINE
  5
109
100
AcDbEntity
  8
Layer_1
 62
7
100
AcDbSpline
 70
8
 71
3
 72
8
 73
4
 74
0
 40
0
 40
0
 40
0
 40
0
 40
1
 40
1
 40
1
 40
1
 10
53.629243
 20
251.047460
 30
0.0
 10
53.298514
 20
251.690546
 30
0.0
 10
53.133149
 20
252.408964
 30
0.0
 10
53.133149
 20
253.202714
 30
0.0
  0
SPLINE
  5
10a
100
AcDbEntity
  8
Layer_1
 62
7
100
AcDbSpline
 70
8
 71
3
 72
8
 73
4
 74
0
 40
0
 40
0
 40
0
 40
0
 40
1
 40
1
 40
1
 40
1
 10
53.133149
 20
253.202714
 30
0.0
 10
53.133149
 20
253.989115
 30
0.0
 10
53.296676
 20
254.722232
 30
0.0
 10
53.623731
 20
255.402065
 30
0.0
  0
SPLINE
  5
10b
100
AcDbEntity
  8
Layer_1
 62
7
100
AcDbSpline
 70
8
 71
3
 72
8
 73
4
 74
0
 40
0
 40
0
 40
0
 40
0
 40
1
 40
1
 40
1
 40
1
 10
53.623731
 20
255.402065
 30
0.0
 10
53.954461
 20
256.085572
 30
0.0
 10
54.428506
 20
256.592690
 30
0.0
 10
55.045867
 20
256.923419
 30
0.0
  0
SPLINE
  5
10c
100
AcDbEntity
  8
Layer_1
 62
7
100
AcDbSpline
 70
8
 71
3
 72
8
 73
4
 74
0
 40
0
 40
0
 40
0
 40
0
 40
1
 40
1
 40
1
 40
1
 10
55.045867
 20
256.923419
 30
0.0
 10
55.663230
 20
257.254150
 30
0.0
 10
56.374298
 20
257.419516
 30
0.0
 10
57.179073
 20
257.419516
 30
0.0
  0
SPLINE
  5
10d
100
AcDbEntity
  8
Layer_1
 62
7
100
AcDbSpline
 70
8
 71
3
 72
8
 73
4
 74
0
 40
0
 40
0
 40
0
 40
0
 40
1
 40
1
 40
1
 40
1
 10
57.179073
 20
257.419516
 30
0.0
 10
57.763361
 20
257.419516
 30
0.0
 10
58.290690
 20
257.323971
 30
0.0
 10
58.761061
 20
257.132882
 30
0.0
  0
SPLINE
  5
10e
100
AcDbEntity
  8
Layer_1
 62
7
100
AcDbSpline
 70
8
 71
3
 72
8
 73
4
 74
0
 40
0
 40
0
 40
0
 40
0
 40
1
 40
1
 40
1
 40
1
 10
58.761061
 20
257.132882
 30
0.0
 10
59.235106
 20
256.945469
 30
0.0
 10
59.606259
 20
256.682723
 30
0.0
 10
59.874518
 20
256.344643
 30
0.0
  0
SPLINE
  5
10f
100
AcDbEntity
  8
Layer_1
 62
7
100
AcDbSpline
 70
8
 71
3
 72
8
 73
4
 74
0
 40
0
 40
0
 40
0
 40
0
 40
1
 40
1
 40
1
 40
1
 10
59.874518
 20
256.344643
 30
0.0
 10
60.142775
 20
256.006564
 30
0.0
 10
60.346725
 20
255.565592
 30
0.0
 10
60.486367
 20
255.021727
 30
0.0
  0
LWPOLYLINE
  5
110
100
AcDbEntity
  8
Layer_1
 62
7
100
AcDbPolyline
 90
4
 70
0
 10
57.184584
 20
252.370390
 30
0.0
 10
57.184584
 20
253.318479
 30
0.0
 10
60.607633
 20
253.323983
 30
0.0
 10
60.607633
 20
250.325370
 30
0.0
  0
SPLINE
  5
111
100
AcDbEntity
  8
Layer_1
 62
7
100
AcDbSpline
 70
8
 71
3
 72
8
 73
4
 74
0
 40
0
 40
0
 40
0
 40
0
 40
1
 40
1
 40
1
 40
1
 10
59.521738
 20
254.757143
 30
0.0
 10
59.400471
 20
255.168717
 30
0.0
 10
59.249806
 20
255.492097
 30
0.0
 10
59.069743
 20
255.727283
 30
0.0
  0
SPLINE
  5
112
100
AcDbEntity
  8
Layer_1
 62
7
100
AcDbSpline
 70
8
 71
3
 72
8
 73
4
 74
0
 40
0
 40
0
 40
0
 40
0
 40
1
 40
1
 40
1
 40
1
 10
59.069743
 20
255.727283
 30
0.0
 10
58.889678
 20
255.962468
 30
0.0
 10
58.632444
 20
256.149881
 30
0.0
 10
58.298040
 20
256.289523
 30
0.0
  0
SPLINE
  5
113
100
AcDbEntity
  8
Layer_1
 62
7
100
AcDbSpline
 70
8
 71
3
 72
8
 73
4
 74
0
 40
0
 40
0
 40
0
 40
0
 40
1
 40
1
 40
1
 40
1
 10
58.298040
 20
256.289523
 30
0.0
 10
57.963635
 20
256.432839
 30
0.0
 10
57.592483
 20
256.504497
 30
0.0
 10
57.184584
 20
256.504497
 30
0.0
  0
SPLINE
  5
114
100
AcDbEntity
  8
Layer_1
 62
7
100
AcDbSpline
 70
8
 71
3
 72
8
 73
4
 74
0
 40
0
 40
0
 40
0
 40
0
 40
1
 40
1
 40
1
 40
1
 10
57.184584
 20
256.504497
 30
0.0
 10
56.695840
 20
256.504497
 30
0.0
 10
56.273242
 20
256.429164
 30
0.0
 10
55.916788
 20
256.278497
 30
0.0
  0
SPLINE
  5
115
100
AcDbEntity
  8
Layer_1
 62
7
100
AcDbSpline
 70
8
 71
3
 72
8
 73
4
 74
0
 40
0
 40
0
 40
0
 40
0
 40
1
 40
1
 40
1
 40
1
 10
55.916788
 20
256.278497
 30
0.0
 10
55.560336
 20
256.131507
 30
0.0
 10
55.271867
 20
255.936745
 30
0.0
 10
55.051381
 20
255.694210
 30
0.0
  0
SPLINE
  5
116
100
AcDbEntity
  8
Layer_1
 62
7
100
AcDbSpline
 70
8
 71
3
 72
8
 73
4
 74
0
 40
0
 40
0
 40
0
 40
0
 40
1
 40
1
 40
1
 40
1
 10
55.051381
 20
255.694210
 30
0.0
 10
54.834569
 20
255.451675
 30
0.0
 10
54.665529
 20
255.185254
 30
0.0
 10
54.544262
 20
254.894946
 30
0.0
  0
SPLINE
  5
117
100
AcDbEntity
  8
Layer_1
 62
7
100
AcDbSpline
 70
8
 71
3
 72
8
 73
4
 74
0
 40
0
 40
0
 40
0
 40
0
 40
1
 40
1
 40
1
 40
1
 10
54.544262
 20
254.894946
 30
0.0
 10
54.338474
 20
254.395178
 30
0.0
 10
54.235580
 20
253.853149
 30
0.0
 10
54.235580
 20
253.268859
 30
0.0
  0
SPLINE
  5
118
100
AcDbEntity
  8
Layer_1
 62
7
100
AcDbSpline
 70
8
 71
3
 72
8
 73
4
 74
0
 40
0
 40
0
 40
0
 40
0
 40
1
 40
1
 40
1
 40
1
 10
54.235580
 20
253.268859
 30
0.0
 10
54.235580
 20
252.548605
 30
0.0
 10
54.358685
 20
251.945944
 30
0.0
 10
54.604894
 20
251.460874
 30
0.0
  0
SPLINE
  5
119
100
AcDbEntity
  8
Layer_1
 62
7
100
AcDbSpline
 70
8
 71
3
 72
8
 73
4
 74
0
 40
0
 40
0
 40
0
 40
0
 40
1
 40
1
 40
1
 40
1
 10
54.604894
 20
251.460874
 30
0.0
 10
54.854779
 20
250.975803
 30
0.0
 10
55.216744
 20
250.615675
 30
0.0
 10
55.690789
 20
250.380490
 30
0.0
  0
SPLINE
  5
11a
100
AcDbEntity
  8
Layer_1
 62
7
100
AcDbSpline
 70
8
 71
3
 72
8
 73
4
 74
0
 40
0
 40
0
 40
0
 40
0
 40
1
 40
1
 40
1
 40
1
 10
55.690789
 20
250.380490
 30
0.0
 10
56.164836
 20
250.145306
 30
0.0
 10
56.668279
 20
250.027714
 30
0.0
 10
57.201120
 20
250.027714
 30
0.0
  0
SPLINE
  5
11b
100
AcDbEntity
  8
Layer_1
 62
7
100
AcDbSpline
 70
8
 71
3
 72
8
 73
4
 74
0
 40
0
 40
0
 40
0
 40
0
 40
1
 40
1
 40
1
 40
1
 10
57.201120
 20
250.027714
 30
0.0
 10
57.664141
 20
250.027714
 30
0.0
 10
58.116139
 20
250.115908
 30
0.0
 10
58.557113
 20
250.292297
 30
0.0
  0
SPLINE
  5
11c
100
AcDbEntity
  8
Layer_1
 62
7
100
AcDbSpline
 70
8
 71
3
 72
8
 73
4
 74
0
 40
0
 40
0
 40
0
 40
0
 40
1
 40
1
 40
1
 40
1
 10
58.557113
 20
250.292297
 30
0.0
 10
58.998085
 20
250.472360
 30
0.0
 10
59.332489
 20
250.663447
 30
0.0
 10
59.560325
 20
250.865559
 30
0.0
  0
LWPOLYLINE
  5
11d
100
AcDbEntity
  8
Layer_1
 62
7
100
AcDbPolyline
 90
2
 70
0
 10
60.486367
 20
255.021727
 30
0.0
 10
59.521738
 20
254.757143
 30
0.0
  0
LWPOLYLINE
  5
11e
100
AcDbEntity
  8
Layer_1
 62
7
100
AcDbPolyline
 90
3
 70
0
 10
59.560325
 20
250.865559
 30
0.0
 10
59.560325
 20
252.370379
 30
0.0
 10
57.184584
 20
252.370390
 30
0.0
  0
SPLINE
  5
11f
100
AcDbEntity
  8
Layer_1
 62
7
100
AcDbSpline
 70
8
 71
3
 72
8
 73
4
 74
0
 40
0
 40
0
 40
0
 40
0
 40
1
 40
1
 40
1
 40
1
 10
62.939277
 20
254.167353
 30
0.0
 10
63.167111
 20
254.582602
 30
0.0
 10
63.376573
 20
254.856373
 30
0.0
 10
63.567662
 20
254.988664
 30
0.0
  0
SPLINE
  5
120
100
AcDbEntity
  8
Layer_1
 62
7
100
AcDbSpline
 70
8
 71
3
 72
8
 73
4
 74
0
 40
0
 40
0
 40
0
 40
0
 40
1
 40
1
 40
1
 40
1
 10
63.567662
 20
254.988664
 30
0.0
 10
63.762425
 20
255.120956
 30
0.0
 10
63.975562
 20
255.187102
 30
0.0
 10
64.207073
 20
255.187102
 30
0.0
  0
SPLINE
  5
121
100
AcDbEntity
  8
Layer_1
 62
7
100
AcDbSpline
 70
8
 71
3
 72
8
 73
4
 74
0
 40
0
 40
0
 40
0
 40
0
 40
1
 40
1
 40
1
 40
1
 10
64.207073
 20
255.187102
 30
0.0
 10
64.541476
 20
255.187102
 30
0.0
 10
64.881392
 20
255.080534
 30
0.0
 10
65.226822
 20
254.867398
 30
0.0
  0
LWPOLYLINE
  5
122
100
AcDbEntity
  8
Layer_1
 62
7
100
AcDbPolyline
 90
4
 70
0
 10
62.046305
 20
249.200899
 30
0.0
 10
62.046305
 20
255.054810
 30
0.0
 10
62.939277
 20
255.054810
 30
0.0
 10
62.939277
 20
254.167353
 30
0.0
  0
SPLINE
  5
123
100
AcDbEntity
  8
Layer_1
 62
7
100
AcDbSpline
 70
8
 71
3
 72
8
 73
4
 74
0
 40
0
 40
0
 40
0
 40
0
 40
1
 40
1
 40
1
 40
1
 10
64.885067
 20
253.946867
 30
0.0
 10
64.642533
 20
254.090183
 30
0.0
 10
64.399998
 20
254.161841
 30
0.0
 10
64.157463
 20
254.161841
 30
0.0
  0
SPLINE
  5
124
100
AcDbEntity
  8
Layer_1
 62
7
100
AcDbSpline
 70
8
 71
3
 72
8
 73
4
 74
0
 40
0
 40
0
 40
0
 40
0
 40
1
 40
1
 40
1
 40
1
 10
64.157463
 20
254.161841
 30
0.0
 10
63.940651
 20
254.161841
 30
0.0
 10
63.745888
 20
254.095696
 30
0.0
 10
63.573173
 20
253.963404
 30
0.0
  0
SPLINE
  5
125
100
AcDbEntity
  8
Layer_1
 62
7
100
AcDbSpline
 70
8
 71
3
 72
8
 73
4
 74
0
 40
0
 40
0
 40
0
 40
0
 40
1
 40
1
 40
1
 40
1
 10
63.573173
 20
253.963404
 30
0.0
 10
63.400459
 20
253.834786
 30
0.0
 10
63.277354
 20
253.654722
 30
0.0
 10
63.203860
 20
253.423212
 30
0.0
  0
SPLINE
  5
126
100
AcDbEntity
  8
Layer_1
 62
7
100
AcDbSpline
 70
8
 71
3
 72
8
 73
4
 74
0
 40
0
 40
0
 40
0
 40
0
 40
1
 40
1
 40
1
 40
1
 10
63.203860
 20
253.423212
 30
0.0
 10
63.093617
 20
253.070434
 30
0.0
 10
63.038495
 20
252.684583
 30
0.0
 10
63.038495
 20
252.265657
 30
0.0
  0
LWPOLYLINE
  5
127
100
AcDbEntity
  8
Layer_1
 62
7
100
AcDbPolyline
 90
2
 70
0
 10
65.226822
 20
254.867398
 30
0.0
 10
64.885067
 20
253.946867
 30
0.0
  0
SPLINE
  5
128
100
AcDbEntity
  8
Layer_1
 62
7
100
AcDbSpline
 70
8
 71
3
 72
8
 73
4
 74
0
 40
0
 40
0
 40
0
 40
0
 40
1
 40
1
 40
1
 40
1
 10
69.636545
 20
249.922992
 30
0.0
 10
69.269069
 20
249.610637
 30
0.0
 10
68.914454
 20
249.390151
 30
0.0
 10
68.572700
 20
249.261533
 30
0.0
  0
SPLINE
  5
129
100
AcDbEntity
  8
Layer_1
 62
7
100
AcDbSpline
 70
8
 71
3
 72
8
 73
4
 74
0
 40
0
 40
0
 40
0
 40
0
 40
1
 40
1
 40
1
 40
1
 10
68.572700
 20
249.261533
 30
0.0
 10
68.234621
 20
249.132916
 30
0.0
 10
67.870819
 20
249.068607
 30
0.0
 10
67.481294
 20
249.068607
 30
0.0
  0
SPLINE
  5
12a
100
AcDbEntity
  8
Layer_1
 62
7
100
AcDbSpline
 70
8
 71
3
 72
8
 73
4
 74
0
 40
0
 40
0
 40
0
 40
0
 40
1
 40
1
 40
1
 40
1
 10
67.481294
 20
249.068607
 30
0.0
 10
66.838208
 20
249.068607
 30
0.0
 10
66.343951
 20
249.224785
 30
0.0
 10
65.998521
 20
249.537142
 30
0.0
  0
SPLINE
  5
12b
100
AcDbEntity
  8
Layer_1
 62
7
100
AcDbSpline
 70
8
 71
3
 72
8
 73
4
 74
0
 40
0
 40
0
 40
0
 40
0
 40
1
 40
1
 40
1
 40
1
 10
65.998521
 20
249.537142
 30
0.0
 10
65.653094
 20
249.853171
 30
0.0
 10
65.480380
 20
250.255558
 30
0.0
 10
65.480380
 20
250.744303
 30
0.0
  0
SPLINE
  5
12c
100
AcDbEntity
  8
Layer_1
 62
7
100
AcDbSpline
 70
8
 71
3
 72
8
 73
4
 74
0
 40
0
 40
0
 40
0
 40
0
 40
1
 40
1
 40
1
 40
1
 10
65.480380
 20
250.744303
 30
0.0
 10
65.480380
 20
251.030935
 30
0.0
 10
65.544689
 20
251.291844
 30
0.0
 10
65.673306
 20
251.527031
 30
0.0
  0
SPLINE
  5
12d
100
AcDbEntity
  8
Layer_1
 62
7
100
AcDbSpline
 70
8
 71
3
 72
8
 73
4
 74
0
 40
0
 40
0
 40
0
 40
0
 40
1
 40
1
 40
1
 40
1
 10
65.673306
 20
251.527031
 30
0.0
 10
65.805598
 20
251.765889
 30
0.0
 10
65.976475
 20
251.956977
 30
0.0
 10
66.185936
 20
252.100293
 30
0.0
  0
SPLINE
  5
12e
100
AcDbEntity
  8
Layer_1
 62
7
100
AcDbSpline
 70
8
 71
3
 72
8
 73
4
 74
0
 40
0
 40
0
 40
0
 40
0
 40
1
 40
1
 40
1
 40
1
 10
66.185936
 20
252.100293
 30
0.0
 10
66.399072
 20
252.243609
 30
0.0
 10
66.637932
 20
252.352015
 30
0.0
 10
66.902515
 20
252.425511
 30
0.0
  0
SPLINE
  5
12f
100
AcDbEntity
  8
Layer_1
 62
7
100
AcDbSpline
 70
8
 71
3
 72
8
 73
4
 74
0
 40
0
 40
0
 40
0
 40
0
 40
1
 40
1
 40
1
 40
1
 10
66.902515
 20
252.425511
 30
0.0
 10
67.097279
 20
252.476958
 30
0.0
 10
67.391261
 20
252.526567
 30
0.0
 10
67.784461
 20
252.574339
 30
0.0
  0
SPLINE
  5
130
100
AcDbEntity
  8
Layer_1
 62
7
100
AcDbSpline
 70
8
 71
3
 72
8
 73
4
 74
0
 40
0
 40
0
 40
0
 40
0
 40
1
 40
1
 40
1
 40
1
 10
67.784461
 20
252.574339
 30
0.0
 10
68.585562
 20
252.669883
 30
0.0
 10
69.175362
 20
252.783801
 30
0.0
 10
69.553862
 20
252.916093
 30
0.0
  0
SPLINE
  5
131
100
AcDbEntity
  8
Layer_1
 62
7
100
AcDbSpline
 70
8
 71
3
 72
8
 73
4
 74
0
 40
0
 40
0
 40
0
 40
0
 40
1
 40
1
 40
1
 40
1
 10
69.553862
 20
252.916093
 30
0.0
 10
69.557531
 20
253.052059
 30
0.0
 10
69.559366
 20
253.138416
 30
0.0
 10
69.559366
 20
253.175165
 30
0.0
  0
SPLINE
  5
132
100
AcDbEntity
  8
Layer_1
 62
7
100
AcDbSpline
 70
8
 71
3
 72
8
 73
4
 74
0
 40
0
 40
0
 40
0
 40
0
 40
1
 40
1
 40
1
 40
1
 10
69.559366
 20
253.175165
 30
0.0
 10
69.559366
 20
253.579390
 30
0.0
 10
69.465659
 20
253.864185
 30
0.0
 10
69.278246
 20
254.029550
 30
0.0
  0
SPLINE
  5
133
100
AcDbEntity
  8
Layer_1
 62
7
100
AcDbSpline
 70
8
 71
3
 72
8
 73
4
 74
0
 40
0
 40
0
 40
0
 40
0
 40
1
 40
1
 40
1
 40
1
 10
69.278246
 20
254.029550
 30
0.0
 10
69.024687
 20
254.253710
 30
0.0
 10
68.648023
 20
254.365790
 30
0.0
 10
68.148253
 20
254.365790
 30
0.0
  0
SPLINE
  5
134
100
AcDbEntity
  8
Layer_1
 62
7
100
AcDbSpline
 70
8
 71
3
 72
8
 73
4
 74
0
 40
0
 40
0
 40
0
 40
0
 40
1
 40
1
 40
1
 40
1
 10
68.148253
 20
254.365790
 30
0.0
 10
67.681558
 20
254.365790
 30
0.0
 10
67.336129
 20
254.283108
 30
0.0
 10
67.111967
 20
254.117743
 30
0.0
  0
SPLINE
  5
135
100
AcDbEntity
  8
Layer_1
 62
7
100
AcDbSpline
 70
8
 71
3
 72
8
 73
4
 74
0
 40
0
 40
0
 40
0
 40
0
 40
1
 40
1
 40
1
 40
1
 10
67.111967
 20
254.117743
 30
0.0
 10
66.891481
 20
253.956053
 30
0.0
 10
66.727954
 20
253.667583
 30
0.0
 10
66.621385
 20
253.252334
 30
0.0
  0
LWPOLYLINE
  5
136
100
AcDbEntity
  8
Layer_1
 62
7
100
AcDbPolyline
 90
3
 70
0
 10
63.038495
 20
252.265657
 30
0.0
 10
63.038495
 20
249.200899
 30
0.0
 10
62.046305
 20
249.200899
 30
0.0
  0
SPLINE
  5
137
100
AcDbEntity
  8
Layer_1
 62
7
100
AcDbSpline
 70
8
 71
3
 72
8
 73
4
 74
0
 40
0
 40
0
 40
0
 40
0
 40
1
 40
1
 40
1
 40
1
 10
65.651245
 20
253.384625
 30
0.0
 10
65.739440
 20
253.799875
 30
0.0
 10
65.884594
 20
254.134279
 30
0.0
 10
66.086707
 20
254.387838
 30
0.0
  0
SPLINE
  5
138
100
AcDbEntity
  8
Layer_1
 62
7
100
AcDbSpline
 70
8
 71
3
 72
8
 73
4
 74
0
 40
0
 40
0
 40
0
 40
0
 40
1
 40
1
 40
1
 40
1
 10
66.086707
 20
254.387838
 30
0.0
 10
66.288819
 20
254.645073
 30
0.0
 10
66.580963
 20
254.841673
 30
0.0
 10
66.963139
 20
254.977639
 30
0.0
  0
SPLINE
  5
139
100
AcDbEntity
  8
Layer_1
 62
7
100
AcDbSpline
 70
8
 71
3
 72
8
 73
4
 74
0
 40
0
 40
0
 40
0
 40
0
 40
1
 40
1
 40
1
 40
1
 10
66.963139
 20
254.977639
 30
0.0
 10
67.345316
 20
255.117281
 30
0.0
 10
67.788126
 20
255.187102
 30
0.0
 10
68.291570
 20
255.187102
 30
0.0
  0
SPLINE
  5
13a
100
AcDbEntity
  8
Layer_1
 62
7
100
AcDbSpline
 70
8
 71
3
 72
8
 73
4
 74
0
 40
0
 40
0
 40
0
 40
0
 40
1
 40
1
 40
1
 40
1
 10
68.291570
 20
255.187102
 30
0.0
 10
68.791338
 20
255.187102
 30
0.0
 10
69.197400
 20
255.128305
 30
0.0
 10
69.509756
 20
255.010712
 30
0.0
  0
SPLINE
  5
13b
100
AcDbEntity
  8
Layer_1
 62
7
100
AcDbSpline
 70
8
 71
3
 72
8
 73
4
 74
0
 40
0
 40
0
 40
0
 40
0
 40
1
 40
1
 40
1
 40
1
 10
69.509756
 20
255.010712
 30
0.0
 10
69.822111
 20
254.893121
 30
0.0
 10
70.051785
 20
254.744292
 30
0.0
 10
70.198776
 20
254.564228
 30
0.0
  0
SPLINE
  5
13c
100
AcDbEntity
  8
Layer_1
 62
7
100
AcDbSpline
 70
8
 71
3
 72
8
 73
4
 74
0
 40
0
 40
0
 40
0
 40
0
 40
1
 40
1
 40
1
 40
1
 10
70.198776
 20
254.564228
 30
0.0
 10
70.345767
 20
254.387839
 30
0.0
 10
70.448660
 20
254.163678
 30
0.0
 10
70.507455
 20
253.891744
 30
0.0
  0
SPLINE
  5
13d
100
AcDbEntity
  8
Layer_1
 62
7
100
AcDbSpline
 70
8
 71
3
 72
8
 73
4
 74
0
 40
0
 40
0
 40
0
 40
0
 40
1
 40
1
 40
1
 40
1
 10
70.507455
 20
253.891744
 30
0.0
 10
70.540528
 20
253.722705
 30
0.0
 10
70.557065
 20
253.417700
 30
0.0
 10
70.557065
 20
252.976728
 30
0.0
  0
LWPOLYLINE
  5
13e
100
AcDbEntity
  8
Layer_1
 62
7
100
AcDbPolyline
 90
2
 70
0
 10
66.621385
 20
253.252334
 30
0.0
 10
65.651245
 20
253.384625
 30
0.0
  0
SPLINE
  5
13f
100
AcDbEntity
  8
Layer_1
 62
7
100
AcDbSpline
 70
8
 71
3
 72
8
 73
4
 74
0
 40
0
 40
0
 40
0
 40
0
 40
1
 40
1
 40
1
 40
1
 10
70.557065
 20
251.653808
 30
0.0
 10
70.557065
 20
250.731441
 30
0.0
 10
70.577276
 20
250.147153
 30
0.0
 10
70.617699
 20
249.900944
 30
0.0
  0
SPLINE
  5
140
100
AcDbEntity
  8
Layer_1
 62
7
100
AcDbSpline
 70
8
 71
3
 72
8
 73
4
 74
0
 40
0
 40
0
 40
0
 40
0
 40
1
 40
1
 40
1
 40
1
 10
70.617699
 20
249.900944
 30
0.0
 10
70.661796
 20
249.658409
 30
0.0
 10
70.746316
 20
249.425061
 30
0.0
 10
70.871257
 20
249.200899
 30
0.0
  0
LWPOLYLINE
  5
141
100
AcDbEntity
  8
Layer_1
 62
7
100
AcDbPolyline
 90
2
 70
0
 10
70.557065
 20
252.976728
 30
0.0
 10
70.557065
 20
251.653808
 30
0.0
  0
SPLINE
  5
142
100
AcDbEntity
  8
Layer_1
 62
7
100
AcDbSpline
 70
8
 71
3
 72
8
 73
4
 74
0
 40
0
 40
0
 40
0
 40
0
 40
1
 40
1
 40
1
 40
1
 10
69.834974
 20
249.200899
 30
0.0
 10
69.732080
 20
249.406686
 30
0.0
 10
69.665933
 20
249.647384
 30
0.0
 10
69.636534
 20
249.922992
 30
0.0
  0
LWPOLYLINE
  5
143
100
AcDbEntity
  8
Layer_1
 62
7
100
AcDbPolyline
 90
2
 70
0
 10
70.871257
 20
249.200899
 30
0.0
 10
69.834974
 20
249.200899
 30
0.0
  0
SPLINE
  5
144
100
AcDbEntity
  8
Layer_1
 62
7
100
AcDbSpline
 70
8
 71
3
 72
8
 73
4
 74
0
 40
0
 40
0
 40
0
 40
0
 40
1
 40
1
 40
1
 40
1
 10
69.553862
 20
252.138880
 30
0.0
 10
69.193736
 20
251.991888
 30
0.0
 10
68.653545
 20
251.866945
 30
0.0
 10
67.933290
 20
251.764052
 30
0.0
  0
SPLINE
  5
145
100
AcDbEntity
  8
Layer_1
 62
7
100
AcDbSpline
 70
8
 71
3
 72
8
 73
4
 74
0
 40
0
 40
0
 40
0
 40
0
 40
1
 40
1
 40
1
 40
1
 10
67.933290
 20
251.764052
 30
0.0
 10
67.525390
 20
251.705257
 30
0.0
 10
67.236920
 20
251.639111
 30
0.0
 10
67.067880
 20
251.565615
 30
0.0
  0
SPLINE
  5
146
100
AcDbEntity
  8
Layer_1
 62
7
100
AcDbSpline
 70
8
 71
3
 72
8
 73
4
 74
0
 40
0
 40
0
 40
0
 40
0
 40
1
 40
1
 40
1
 40
1
 10
67.067880
 20
251.565615
 30
0.0
 10
66.898841
 20
251.492119
 30
0.0
 10
66.768387
 20
251.383713
 30
0.0
 10
66.676519
 20
251.240397
 30
0.0
  0
SPLINE
  5
147
100
AcDbEntity
  8
Layer_1
 62
7
100
AcDbSpline
 70
8
 71
3
 72
8
 73
4
 74
0
 40
0
 40
0
 40
0
 40
0
 40
1
 40
1
 40
1
 40
1
 10
66.676519
 20
251.240397
 30
0.0
 10
66.584648
 20
251.100755
 30
0.0
 10
66.538713
 20
250.944578
 30
0.0
 10
66.538713
 20
250.771865
 30
0.0
  0
SPLINE
  5
148
100
AcDbEntity
  8
Layer_1
 62
7
100
AcDbSpline
 70
8
 71
3
 72
8
 73
4
 74
0
 40
0
 40
0
 40
0
 40
0
 40
1
 40
1
 40
1
 40
1
 10
66.538713
 20
250.771865
 30
0.0
 10
66.538713
 20
250.507281
 30
0.0
 10
66.637932
 20
250.286795
 30
0.0
 10
66.836369
 20
250.110406
 30
0.0
  0
SPLINE
  5
149
100
AcDbEntity
  8
Layer_1
 62
7
100
AcDbSpline
 70
8
 71
3
 72
8
 73
4
 74
0
 40
0
 40
0
 40
0
 40
0
 40
1
 40
1
 40
1
 40
1
 10
66.836369
 20
250.110406
 30
0.0
 10
67.038483
 20
249.934016
 30
0.0
 10
67.332465
 20
249.845820
 30
0.0
 10
67.718316
 20
249.845820
 30
0.0
  0
SPLINE
  5
14a
100
AcDbEntity
  8
Layer_1
 62
7
100
AcDbSpline
 70
8
 71
3
 72
8
 73
4
 74
0
 40
0
 40
0
 40
0
 40
0
 40
1
 40
1
 40
1
 40
1
 10
67.718316
 20
249.845820
 30
0.0
 10
68.100492
 20
249.845820
 30
0.0
 10
68.440409
 20
249.928504
 30
0.0
 10
68.738065
 20
250.093870
 30
0.0
  0
SPLINE
  5
14b
100
AcDbEntity
  8
Layer_1
 62
7
100
AcDbSpline
 70
8
 71
3
 72
8
 73
4
 74
0
 40
0
 40
0
 40
0
 40
0
 40
1
 40
1
 40
1
 40
1
 10
68.738065
 20
250.093870
 30
0.0
 10
69.035721
 20
250.262909
 30
0.0
 10
69.254370
 20
250.492581
 30
0.0
 10
69.394012
 20
250.782887
 30
0.0
  0
SPLINE
  5
14c
100
AcDbEntity
  8
Layer_1
 62
7
100
AcDbSpline
 70
8
 71
3
 72
8
 73
4
 74
0
 40
0
 40
0
 40
0
 40
0
 40
1
 40
1
 40
1
 40
1
 10
69.394012
 20
250.782887
 30
0.0
 10
69.500579
 20
251.007049
 30
0.0
 10
69.553862
 20
251.337779
 30
0.0
 10
69.553862
 20
251.775077
 30
0.0
  0
LWPOLYLINE
  5
14d
100
AcDbEntity
  8
Layer_1
 62
7
100
AcDbPolyline
 90
1
 70
1
 10
69.636534
 20
249.922992
 30
0.0
  0
LWPOLYLINE
  5
14e
100
AcDbEntity
  8
Layer_1
 62
7
100
AcDbPolyline
 90
2
 70
0
 10
69.553862
 20
251.775077
 30
0.0
 10
69.553862
 20
252.138880
 30
0.0
  0
SPLINE
  5
14f
100
AcDbEntity
  8
Layer_1
 62
7
100
AcDbSpline
 70
8
 71
3
 72
8
 73
4
 74
0
 40
0
 40
0
 40
0
 40
0
 40
1
 40
1
 40
1
 40
1
 10
75.892845
 20
249.939528
 30
0.0
 10
75.521693
 20
249.358914
 30
0.0
 10
74.975989
 20
249.068607
 30
0.0
 10
74.255733
 20
249.068607
 30
0.0
  0
SPLINE
  5
150
100
AcDbEntity
  8
Layer_1
 62
7
100
AcDbSpline
 70
8
 71
3
 72
8
 73
4
 74
0
 40
0
 40
0
 40
0
 40
0
 40
1
 40
1
 40
1
 40
1
 10
74.255733
 20
249.068607
 30
0.0
 10
73.789038
 20
249.068607
 30
0.0
 10
73.359090
 20
249.197224
 30
0.0
 10
72.965889
 20
249.454459
 30
0.0
  0
SPLINE
  5
151
100
AcDbEntity
  8
Layer_1
 62
7
100
AcDbSpline
 70
8
 71
3
 72
8
 73
4
 74
0
 40
0
 40
0
 40
0
 40
0
 40
1
 40
1
 40
1
 40
1
 10
72.965889
 20
249.454459
 30
0.0
 10
72.576365
 20
249.711693
 30
0.0
 10
72.273196
 20
250.069983
 30
0.0
 10
72.056384
 20
250.529329
 30
0.0
  0
SPLINE
  5
152
100
AcDbEntity
  8
Layer_1
 62
7
100
AcDbSpline
 70
8
 71
3
 72
8
 73
4
 74
0
 40
0
 40
0
 40
0
 40
0
 40
1
 40
1
 40
1
 40
1
 10
72.056384
 20
250.529329
 30
0.0
 10
71.843246
 20
250.992350
 30
0.0
 10
71.736678
 20
251.523355
 30
0.0
 10
71.736678
 20
252.122343
 30
0.0
  0
SPLINE
  5
153
100
AcDbEntity
  8
Layer_1
 62
7
100
AcDbSpline
 70
8
 71
3
 72
8
 73
4
 74
0
 40
0
 40
0
 40
0
 40
0
 40
1
 40
1
 40
1
 40
1
 10
71.736678
 20
252.122343
 30
0.0
 10
71.736678
 20
252.706631
 30
0.0
 10
71.834059
 20
253.235798
 30
0.0
 10
72.028823
 20
253.709843
 30
0.0
  0
SPLINE
  5
154
100
AcDbEntity
  8
Layer_1
 62
7
100
AcDbSpline
 70
8
 71
3
 72
8
 73
4
 74
0
 40
0
 40
0
 40
0
 40
0
 40
1
 40
1
 40
1
 40
1
 10
72.028823
 20
253.709843
 30
0.0
 10
72.223586
 20
254.187564
 30
0.0
 10
72.515730
 20
254.553204
 30
0.0
 10
72.905255
 20
254.806763
 30
0.0
  0
SPLINE
  5
155
100
AcDbEntity
  8
Layer_1
 62
7
100
AcDbSpline
 70
8
 71
3
 72
8
 73
4
 74
0
 40
0
 40
0
 40
0
 40
0
 40
1
 40
1
 40
1
 40
1
 10
72.905255
 20
254.806763
 30
0.0
 10
73.294782
 20
255.060322
 30
0.0
 10
73.730242
 20
255.187102
 30
0.0
 10
74.211638
 20
255.187102
 30
0.0
  0
SPLINE
  5
156
100
AcDbEntity
  8
Layer_1
 62
7
100
AcDbSpline
 70
8
 71
3
 72
8
 73
4
 74
0
 40
0
 40
0
 40
0
 40
0
 40
1
 40
1
 40
1
 40
1
 10
74.211638
 20
255.187102
 30
0.0
 10
74.564415
 20
255.187102
 30
0.0
 10
74.878608
 20
255.111769
 30
0.0
 10
75.154216
 20
254.961103
 30
0.0
  0
SPLINE
  5
157
100
AcDbEntity
  8
Layer_1
 62
7
100
AcDbSpline
 70
8
 71
3
 72
8
 73
4
 74
0
 40
0
 40
0
 40
0
 40
0
 40
1
 40
1
 40
1
 40
1
 10
75.154216
 20
254.961103
 30
0.0
 10
75.429823
 20
254.814112
 30
0.0
 10
75.653985
 20
254.621187
 30
0.0
 10
75.826699
 20
254.382327
 30
0.0
  0
LWPOLYLINE
  5
158
100
AcDbEntity
  8
Layer_1
 62
7
100
AcDbPolyline
 90
2
 70
0
 10
75.892845
 20
249.200899
 30
0.0
 10
75.892845
 20
249.939528
 30
0.0
  0
SPLINE
  5
159
100
AcDbEntity
  8
Layer_1
 62
7
100
AcDbSpline
 70
8
 71
3
 72
8
 73
4
 74
0
 40
0
 40
0
 40
0
 40
0
 40
1
 40
1
 40
1
 40
1
 10
72.756427
 20
252.122343
 30
0.0
 10
72.756427
 20
251.372689
 30
0.0
 10
72.914442
 20
250.812286
 30
0.0
 10
73.230473
 20
250.441136
 30
0.0
  0
SPLINE
  5
15a
100
AcDbEntity
  8
Layer_1
 62
7
100
AcDbSpline
 70
8
 71
3
 72
8
 73
4
 74
0
 40
0
 40
0
 40
0
 40
0
 40
1
 40
1
 40
1
 40
1
 10
73.230473
 20
250.441136
 30
0.0
 10
73.546503
 20
250.069983
 30
0.0
 10
73.919493
 20
249.884407
 30
0.0
 10
74.349441
 20
249.884407
 30
0.0
  0
SPLINE
  5
15b
100
AcDbEntity
  8
Layer_1
 62
7
100
AcDbSpline
 70
8
 71
3
 72
8
 73
4
 74
0
 40
0
 40
0
 40
0
 40
0
 40
1
 40
1
 40
1
 40
1
 10
74.349441
 20
249.884407
 30
0.0
 10
74.783064
 20
249.884407
 30
0.0
 10
75.150542
 20
250.060796
 30
0.0
 10
75.451872
 20
250.413574
 30
0.0
  0
SPLINE
  5
15c
100
AcDbEntity
  8
Layer_1
 62
7
100
AcDbSpline
 70
8
 71
3
 72
8
 73
4
 74
0
 40
0
 40
0
 40
0
 40
0
 40
1
 40
1
 40
1
 40
1
 10
75.451872
 20
250.413574
 30
0.0
 10
75.756878
 20
250.770026
 30
0.0
 10
75.909382
 20
251.312055
 30
0.0
 10
75.909382
 20
252.039661
 30
0.0
  0
SPLINE
  5
15d
100
AcDbEntity
  8
Layer_1
 62
7
100
AcDbSpline
 70
8
 71
3
 72
8
 73
4
 74
0
 40
0
 40
0
 40
0
 40
0
 40
1
 40
1
 40
1
 40
1
 10
75.909382
 20
252.039661
 30
0.0
 10
75.909382
 20
252.840761
 30
0.0
 10
75.755041
 20
253.428724
 30
0.0
 10
75.446361
 20
253.803551
 30
0.0
  0
SPLINE
  5
15e
100
AcDbEntity
  8
Layer_1
 62
7
100
AcDbSpline
 70
8
 71
3
 72
8
 73
4
 74
0
 40
0
 40
0
 40
0
 40
0
 40
1
 40
1
 40
1
 40
1
 10
75.446361
 20
253.803551
 30
0.0
 10
75.137680
 20
254.178377
 30
0.0
 10
74.757341
 20
254.365790
 30
0.0
 10
74.305343
 20
254.365790
 30
0.0
  0
SPLINE
  5
15f
100
AcDbEntity
  8
Layer_1
 62
7
100
AcDbSpline
 70
8
 71
3
 72
8
 73
4
 74
0
 40
0
 40
0
 40
0
 40
0
 40
1
 40
1
 40
1
 40
1
 10
74.305343
 20
254.365790
 30
0.0
 10
73.864370
 20
254.365790
 30
0.0
 10
73.495056
 20
254.185726
 30
0.0
 10
73.197400
 20
253.825598
 30
0.0
  0
SPLINE
  5
160
100
AcDbEntity
  8
Layer_1
 62
7
100
AcDbSpline
 70
8
 71
3
 72
8
 73
4
 74
0
 40
0
 40
0
 40
0
 40
0
 40
1
 40
1
 40
1
 40
1
 10
73.197400
 20
253.825598
 30
0.0
 10
72.903418
 20
253.465470
 30
0.0
 10
72.756427
 20
252.897719
 30
0.0
 10
72.756427
 20
252.122343
 30
0.0
  0
LWPOLYLINE
  5
161
100
AcDbEntity
  8
Layer_1
 62
7
100
AcDbPolyline
 90
5
 70
0
 10
75.826699
 20
254.382327
 30
0.0
 10
75.826699
 20
257.281721
 30
0.0
 10
76.813376
 20
257.281721
 30
0.0
 10
76.813376
 20
249.200899
 30
0.0
 10
75.892845
 20
249.200899
 30
0.0
  0
LWPOLYLINE
  5
162
100
AcDbEntity
  8
Layer_1
 62
7
100
AcDbPolyline
 90
1
 70
1
 10
72.756427
 20
252.122343
 30
0.0
  0
SPLINE
  5
163
100
AcDbEntity
  8
Layer_1
 62
7
100
AcDbSpline
 70
8
 71
3
 72
8
 73
4
 74
0
 40
0
 40
0
 40
0
 40
0
 40
1
 40
1
 40
1
 40
1
 10
83.405914
 20
250.959277
 30
0.0
 10
83.244223
 20
250.360290
 30
0.0
 10
82.944729
 20
249.895432
 30
0.0
 10
82.507431
 20
249.564701
 30
0.0
  0
SPLINE
  5
164
100
AcDbEntity
  8
Layer_1
 62
7
100
AcDbSpline
 70
8
 71
3
 72
8
 73
4
 74
0
 40
0
 40
0
 40
0
 40
0
 40
1
 40
1
 40
1
 40
1
 10
82.507431
 20
249.564701
 30
0.0
 10
82.070133
 20
249.233972
 30
0.0
 10
81.511568
 20
249.068607
 30
0.0
 10
80.831735
 20
249.068607
 30
0.0
  0
SPLINE
  5
165
100
AcDbEntity
  8
Layer_1
 62
7
100
AcDbSpline
 70
8
 71
3
 72
8
 73
4
 74
0
 40
0
 40
0
 40
0
 40
0
 40
1
 40
1
 40
1
 40
1
 10
80.831735
 20
249.068607
 30
0.0
 10
79.975513
 20
249.068607
 30
0.0
 10
79.295680
 20
249.331353
 30
0.0
 10
78.792237
 20
249.856846
 30
0.0
  0
SPLINE
  5
166
100
AcDbEntity
  8
Layer_1
 62
7
100
AcDbSpline
 70
8
 71
3
 72
8
 73
4
 74
0
 40
0
 40
0
 40
0
 40
0
 40
1
 40
1
 40
1
 40
1
 10
78.792237
 20
249.856846
 30
0.0
 10
78.292469
 20
250.386012
 30
0.0
 10
78.042585
 20
251.126479
 30
0.0
 10
78.042585
 20
252.078245
 30
0.0
  0
SPLINE
  5
167
100
AcDbEntity
  8
Layer_1
 62
7
100
AcDbSpline
 70
8
 71
3
 72
8
 73
4
 74
0
 40
0
 40
0
 40
0
 40
0
 40
1
 40
1
 40
1
 40
1
 10
78.042585
 20
252.078245
 30
0.0
 10
78.042585
 20
253.063084
 30
0.0
 10
78.296144
 20
253.827436
 30
0.0
 10
78.803262
 20
254.371301
 30
0.0
  0
SPLINE
  5
168
100
AcDbEntity
  8
Layer_1
 62
7
100
AcDbSpline
 70
8
 71
3
 72
8
 73
4
 74
0
 40
0
 40
0
 40
0
 40
0
 40
1
 40
1
 40
1
 40
1
 10
78.803262
 20
254.371301
 30
0.0
 10
79.310380
 20
254.915168
 30
0.0
 10
79.968164
 20
255.187102
 30
0.0
 10
80.776614
 20
255.187102
 30
0.0
  0
SPLINE
  5
169
100
AcDbEntity
  8
Layer_1
 62
7
100
AcDbSpline
 70
8
 71
3
 72
8
 73
4
 74
0
 40
0
 40
0
 40
0
 40
0
 40
1
 40
1
 40
1
 40
1
 10
80.776614
 20
255.187102
 30
0.0
 10
81.559340
 20
255.187102
 30
0.0
 10
82.198751
 20
254.920680
 30
0.0
 10
82.694846
 20
254.387838
 30
0.0
  0
SPLINE
  5
16a
100
AcDbEntity
  8
Layer_1
 62
7
100
AcDbSpline
 70
8
 71
3
 72
8
 73
4
 74
0
 40
0
 40
0
 40
0
 40
0
 40
1
 40
1
 40
1
 40
1
 10
82.694846
 20
254.387838
 30
0.0
 10
83.190940
 20
253.854997
 30
0.0
 10
83.438987
 20
253.105344
 30
0.0
 10
83.438987
 20
252.138880
 30
0.0
  0
SPLINE
  5
16b
100
AcDbEntity
  8
Layer_1
 62
7
100
AcDbSpline
 70
8
 71
3
 72
8
 73
4
 74
0
 40
0
 40
0
 40
0
 40
0
 40
1
 40
1
 40
1
 40
1
 10
83.438987
 20
252.138880
 30
0.0
 10
83.438987
 20
252.080082
 30
0.0
 10
83.437152
 20
251.991888
 30
0.0
 10
83.433483
 20
251.874296
 30
0.0
  0
LWPOLYLINE
  5
16c
100
AcDbEntity
  8
Layer_1
 62
7
100
AcDbPolyline
 90
2
 70
0
 10
82.380653
 20
251.086058
 30
0.0
 10
83.405914
 20
250.959277
 30
0.0
  0
SPLINE
  5
16d
100
AcDbEntity
  8
Layer_1
 62
7
100
AcDbSpline
 70
8
 71
3
 72
8
 73
4
 74
0
 40
0
 40
0
 40
0
 40
0
 40
1
 40
1
 40
1
 40
1
 10
79.067856
 20
251.874296
 30
0.0
 10
79.104605
 20
251.231211
 30
0.0
 10
79.286506
 20
250.738791
 30
0.0
 10
79.613559
 20
250.397038
 30
0.0
  0
SPLINE
  5
16e
100
AcDbEntity
  8
Layer_1
 62
7
100
AcDbSpline
 70
8
 71
3
 72
8
 73
4
 74
0
 40
0
 40
0
 40
0
 40
0
 40
1
 40
1
 40
1
 40
1
 10
79.613559
 20
250.397038
 30
0.0
 10
79.940614
 20
250.055284
 30
0.0
 10
80.348514
 20
249.884407
 30
0.0
 10
80.837259
 20
249.884407
 30
0.0
  0
SPLINE
  5
16f
100
AcDbEntity
  8
Layer_1
 62
7
100
AcDbSpline
 70
8
 71
3
 72
8
 73
4
 74
0
 40
0
 40
0
 40
0
 40
0
 40
1
 40
1
 40
1
 40
1
 10
80.837259
 20
249.884407
 30
0.0
 10
81.201061
 20
249.884407
 30
0.0
 10
81.511579
 20
249.979951
 30
0.0
 10
81.768812
 20
250.171038
 30
0.0
  0
SPLINE
  5
170
100
AcDbEntity
  8
Layer_1
 62
7
100
AcDbSpline
 70
8
 71
3
 72
8
 73
4
 74
0
 40
0
 40
0
 40
0
 40
0
 40
1
 40
1
 40
1
 40
1
 10
81.768812
 20
250.171038
 30
0.0
 10
82.026047
 20
250.362128
 30
0.0
 10
82.229998
 20
250.667134
 30
0.0
 10
82.380664
 20
251.086058
 30
0.0
  0
LWPOLYLINE
  5
171
100
AcDbEntity
  8
Layer_1
 62
7
100
AcDbPolyline
 90
2
 70
0
 10
83.433483
 20
251.874296
 30
0.0
 10
79.067856
 20
251.874296
 30
0.0
  0
LWPOLYLINE
  5
172
100
AcDbEntity
  8
Layer_1
 62
7
100
AcDbPolyline
 90
1
 70
1
 10
82.380664
 20
251.086058
 30
0.0
  0
SPLINE
  5
173
100
AcDbEntity
  8
Layer_1
 62
7
100
AcDbSpline
 70
8
 71
3
 72
8
 73
4
 74
0
 40
0
 40
0
 40
0
 40
0
 40
1
 40
1
 40
1
 40
1
 10
82.391676
 20
252.690094
 30
0.0
 10
82.347579
 20
253.182514
 30
0.0
 10
82.222636
 20
253.551829
 30
0.0
 10
82.016849
 20
253.798039
 30
0.0
  0
SPLINE
  5
174
100
AcDbEntity
  8
Layer_1
 62
7
100
AcDbSpline
 70
8
 71
3
 72
8
 73
4
 74
0
 40
0
 40
0
 40
0
 40
0
 40
1
 40
1
 40
1
 40
1
 10
82.016849
 20
253.798039
 30
0.0
 10
81.700820
 20
254.180214
 30
0.0
 10
81.291083
 20
254.371301
 30
0.0
 10
80.787639
 20
254.371301
 30
0.0
  0
SPLINE
  5
175
100
AcDbEntity
  8
Layer_1
 62
7
100
AcDbSpline
 70
8
 71
3
 72
8
 73
4
 74
0
 40
0
 40
0
 40
0
 40
0
 40
1
 40
1
 40
1
 40
1
 10
80.787639
 20
254.371301
 30
0.0
 10
80.331967
 20
254.371301
 30
0.0
 10
79.947953
 20
254.218799
 30
0.0
 10
79.635599
 20
253.913794
 30
0.0
  0
SPLINE
  5
176
100
AcDbEntity
  8
Layer_1
 62
7
100
AcDbSpline
 70
8
 71
3
 72
8
 73
4
 74
0
 40
0
 40
0
 40
0
 40
0
 40
1
 40
1
 40
1
 40
1
 10
79.635599
 20
253.913794
 30
0.0
 10
79.326918
 20
253.608788
 30
0.0
 10
79.156041
 20
253.200888
 30
0.0
 10
79.122968
 20
252.690094
 30
0.0
  0
LWPOLYLINE
  5
177
100
AcDbEntity
  8
Layer_1
 62
7
100
AcDbPolyline
 90
2
 70
0
 10
79.122968
 20
252.690094
 30
0.0
 10
82.391676
 20
252.690094
 30
0.0
  0
LWPOLYLINE
  5
178
100
AcDbEntity
  8
Layer_1
 62
7
100
AcDbPolyline
 90
1
 70
1
 10
79.122968
 20
252.690094
 30
0.0
  0
SPLINE
  5
179
100
AcDbEntity
  8
Layer_1
 62
7
100
AcDbSpline
 70
8
 71
3
 72
8
 73
4
 74
0
 40
0
 40
0
 40
0
 40
0
 40
1
 40
1
 40
1
 40
1
 10
90.257524
 20
255.523342
 30
0.0
 10
90.018663
 20
255.295508
 30
0.0
 10
89.704471
 20
255.067672
 30
0.0
 10
89.314946
 20
254.839836
 30
0.0
  0
SPLINE
  5
17a
100
AcDbEntity
  8
Layer_1
 62
7
100
AcDbSpline
 70
8
 71
3
 72
8
 73
4
 74
0
 40
0
 40
0
 40
0
 40
0
 40
1
 40
1
 40
1
 40
1
 10
89.314946
 20
254.839836
 30
0.0
 10
88.929095
 20
254.612000
 30
0.0
 10
88.581829
 20
254.441123
 30
0.0
 10
88.273146
 20
254.327206
 30
0.0
  0
LWPOLYLINE
  5
17b
100
AcDbEntity
  8
Layer_1
 62
7
100
AcDbPolyline
 90
3
 70
0
 10
91.249711
 20
249.200899
 30
0.0
 10
90.257524
 20
249.200899
 30
0.0
 10
90.257524
 20
255.523342
 30
0.0
  0
SPLINE
  5
17c
100
AcDbEntity
  8
Layer_1
 62
7
100
AcDbSpline
 70
8
 71
3
 72
8
 73
4
 74
0
 40
0
 40
0
 40
0
 40
0
 40
1
 40
1
 40
1
 40
1
 10
88.273146
 20
255.286321
 30
0.0
 10
88.828038
 20
255.547230
 30
0.0
 10
89.313108
 20
255.863260
 30
0.0
 10
89.728357
 20
256.234413
 30
0.0
  0
SPLINE
  5
17d
100
AcDbEntity
  8
Layer_1
 62
7
100
AcDbSpline
 70
8
 71
3
 72
8
 73
4
 74
0
 40
0
 40
0
 40
0
 40
0
 40
1
 40
1
 40
1
 40
1
 10
89.728357
 20
256.234413
 30
0.0
 10
90.143607
 20
256.605563
 30
0.0
 10
90.437588
 20
256.965690
 30
0.0
 10
90.610301
 20
257.314794
 30
0.0
  0
LWPOLYLINE
  5
17e
100
AcDbEntity
  8
Layer_1
 62
7
100
AcDbPolyline
 90
2
 70
0
 10
88.273146
 20
254.327206
 30
0.0
 10
88.273146
 20
255.286321
 30
0.0
  0
LWPOLYLINE
  5
17f
100
AcDbEntity
  8
Layer_1
 62
7
100
AcDbPolyline
 90
3
 70
0
 10
90.610301
 20
257.314794
 30
0.0
 10
91.249711
 20
257.314794
 30
0.0
 10
91.249711
 20
249.200899
 30
0.0
  0
SPLINE
  5
180
100
AcDbEntity
  8
Layer_1
 62
7
100
AcDbSpline
 70
8
 71
3
 72
8
 73
4
 74
0
 40
0
 40
0
 40
0
 40
0
 40
1
 40
1
 40
1
 40
1
 10
97.974547
 20
251.885319
 30
0.0
 10
98.022320
 20
251.481095
 30
0.0
 10
98.132563
 20
251.148529
 30
0.0
 10
98.305276
 20
250.887620
 30
0.0
  0
SPLINE
  5
181
100
AcDbEntity
  8
Layer_1
 62
7
100
AcDbSpline
 70
8
 71
3
 72
8
 73
4
 74
0
 40
0
 40
0
 40
0
 40
0
 40
1
 40
1
 40
1
 40
1
 10
98.305276
 20
250.887620
 30
0.0
 10
98.481665
 20
250.630385
 30
0.0
 10
98.753598
 20
250.420923
 30
0.0
 10
99.121076
 20
250.259235
 30
0.0
  0
SPLINE
  5
182
100
AcDbEntity
  8
Layer_1
 62
7
100
AcDbSpline
 70
8
 71
3
 72
8
 73
4
 74
0
 40
0
 40
0
 40
0
 40
0
 40
1
 40
1
 40
1
 40
1
 10
99.121076
 20
250.259235
 30
0.0
 10
99.488552
 20
250.101218
 30
0.0
 10
99.901964
 20
250.022210
 30
0.0
 10
100.361310
 20
250.022210
 30
0.0
  0
SPLINE
  5
183
100
AcDbEntity
  8
Layer_1
 62
7
100
AcDbSpline
 70
8
 71
3
 72
8
 73
4
 74
0
 40
0
 40
0
 40
0
 40
0
 40
1
 40
1
 40
1
 40
1
 10
100.361310
 20
250.022210
 30
0.0
 10
100.769210
 20
250.022210
 30
0.0
 10
101.129338
 20
250.082844
 30
0.0
 10
101.441694
 20
250.204111
 30
0.0
  0
SPLINE
  5
184
100
AcDbEntity
  8
Layer_1
 62
7
100
AcDbSpline
 70
8
 71
3
 72
8
 73
4
 74
0
 40
0
 40
0
 40
0
 40
0
 40
1
 40
1
 40
1
 40
1
 10
101.441694
 20
250.204111
 30
0.0
 10
101.754049
 20
250.325379
 30
0.0
 10
101.985559
 20
250.490743
 30
0.0
 10
102.136225
 20
250.700205
 30
0.0
  0
SPLINE
  5
185
100
AcDbEntity
  8
Layer_1
 62
7
100
AcDbSpline
 70
8
 71
3
 72
8
 73
4
 74
0
 40
0
 40
0
 40
0
 40
0
 40
1
 40
1
 40
1
 40
1
 10
102.136225
 20
250.700205
 30
0.0
 10
102.290566
 20
250.913343
 30
0.0
 10
102.367736
 20
251.144854
 30
0.0
 10
102.367736
 20
251.394739
 30
0.0
  0
SPLINE
  5
186
100
AcDbEntity
  8
Layer_1
 62
7
100
AcDbSpline
 70
8
 71
3
 72
8
 73
4
 74
0
 40
0
 40
0
 40
0
 40
0
 40
1
 40
1
 40
1
 40
1
 10
102.367736
 20
251.394739
 30
0.0
 10
102.367736
 20
251.648298
 30
0.0
 10
102.294241
 20
251.868784
 30
0.0
 10
102.147251
 20
252.056197
 30
0.0
  0
SPLINE
  5
187
100
AcDbEntity
  8
Layer_1
 62
7
100
AcDbSpline
 70
8
 71
3
 72
8
 73
4
 74
0
 40
0
 40
0
 40
0
 40
0
 40
1
 40
1
 40
1
 40
1
 10
102.147251
 20
252.056197
 30
0.0
 10
102.000259
 20
252.247285
 30
0.0
 10
101.757724
 20
252.407137
 30
0.0
 10
101.419646
 20
252.535755
 30
0.0
  0
SPLINE
  5
188
100
AcDbEntity
  8
Layer_1
 62
7
100
AcDbSpline
 70
8
 71
3
 72
8
 73
4
 74
0
 40
0
 40
0
 40
0
 40
0
 40
1
 40
1
 40
1
 40
1
 10
101.419646
 20
252.535755
 30
0.0
 10
101.202834
 20
252.620275
 30
0.0
 10
100.723276
 20
252.750729
 30
0.0
 10
99.980972
 20
252.927118
 30
0.0
  0
SPLINE
  5
189
100
AcDbEntity
  8
Layer_1
 62
7
100
AcDbSpline
 70
8
 71
3
 72
8
 73
4
 74
0
 40
0
 40
0
 40
0
 40
0
 40
1
 40
1
 40
1
 40
1
 10
99.980972
 20
252.927118
 30
0.0
 10
99.238667
 20
253.107181
 30
0.0
 10
98.718687
 20
253.276220
 30
0.0
 10
98.421031
 20
253.434235
 30
0.0
  0
SPLINE
  5
18a
100
AcDbEntity
  8
Layer_1
 62
7
100
AcDbSpline
 70
8
 71
3
 72
8
 73
4
 74
0
 40
0
 40
0
 40
0
 40
0
 40
1
 40
1
 40
1
 40
1
 10
98.421031
 20
253.434235
 30
0.0
 10
98.035180
 20
253.636348
 30
0.0
 10
97.746711
 20
253.886233
 30
0.0
 10
97.555624
 20
254.183889
 30
0.0
  0
SPLINE
  5
18b
100
AcDbEntity
  8
Layer_1
 62
7
100
AcDbSpline
 70
8
 71
3
 72
8
 73
4
 74
0
 40
0
 40
0
 40
0
 40
0
 40
1
 40
1
 40
1
 40
1
 10
97.555624
 20
254.183889
 30
0.0
 10
97.368211
 20
254.485220
 30
0.0
 10
97.274504
 20
254.821461
 30
0.0
 10
97.274504
 20
255.192613
 30
0.0
  0
SPLINE
  5
18c
100
AcDbEntity
  8
Layer_1
 62
7
100
AcDbSpline
 70
8
 71
3
 72
8
 73
4
 74
0
 40
0
 40
0
 40
0
 40
0
 40
1
 40
1
 40
1
 40
1
 10
97.274504
 20
255.192613
 30
0.0
 10
97.274504
 20
255.600512
 30
0.0
 10
97.390259
 20
255.980852
 30
0.0
 10
97.621770
 20
256.333631
 30
0.0
  0
SPLINE
  5
18d
100
AcDbEntity
  8
Layer_1
 62
7
100
AcDbSpline
 70
8
 71
3
 72
8
 73
4
 74
0
 40
0
 40
0
 40
0
 40
0
 40
1
 40
1
 40
1
 40
1
 10
97.621770
 20
256.333631
 30
0.0
 10
97.853280
 20
256.690083
 30
0.0
 10
98.191358
 20
256.960179
 30
0.0
 10
98.636005
 20
257.143918
 30
0.0
  0
SPLINE
  5
18e
100
AcDbEntity
  8
Layer_1
 62
7
100
AcDbSpline
 70
8
 71
3
 72
8
 73
4
 74
0
 40
0
 40
0
 40
0
 40
0
 40
1
 40
1
 40
1
 40
1
 10
98.636005
 20
257.143918
 30
0.0
 10
99.080653
 20
257.327657
 30
0.0
 10
99.574910
 20
257.419526
 30
0.0
 10
100.118775
 20
257.419526
 30
0.0
  0
SPLINE
  5
18f
100
AcDbEntity
  8
Layer_1
 62
7
100
AcDbSpline
 70
8
 71
3
 72
8
 73
4
 74
0
 40
0
 40
0
 40
0
 40
0
 40
1
 40
1
 40
1
 40
1
 10
100.118775
 20
257.419526
 30
0.0
 10
100.717763
 20
257.419526
 30
0.0
 10
101.245094
 20
257.322145
 30
0.0
 10
101.700766
 20
257.127381
 30
0.0
  0
SPLINE
  5
190
100
AcDbEntity
  8
Layer_1
 62
7
100
AcDbSpline
 70
8
 71
3
 72
8
 73
4
 74
0
 40
0
 40
0
 40
0
 40
0
 40
1
 40
1
 40
1
 40
1
 10
101.700766
 20
257.127381
 30
0.0
 10
102.160111
 20
256.936292
 30
0.0
 10
102.512889
 20
256.653334
 30
0.0
 10
102.759100
 20
256.278508
 30
0.0
  0
SPLINE
  5
191
100
AcDbEntity
  8
Layer_1
 62
7
100
AcDbSpline
 70
8
 71
3
 72
8
 73
4
 74
0
 40
0
 40
0
 40
0
 40
0
 40
1
 40
1
 40
1
 40
1
 10
102.759100
 20
256.278508
 30
0.0
 10
103.005308
 20
255.903682
 30
0.0
 10
103.137600
 20
255.479246
 30
0.0
 10
103.155975
 20
255.005201
 30
0.0
  0
LWPOLYLINE
  5
192
100
AcDbEntity
  8
Layer_1
 62
7
100
AcDbPolyline
 90
2
 70
0
 10
96.965823
 20
251.797125
 30
0.0
 10
97.974547
 20
251.885319
 30
0.0
  0
SPLINE
  5
193
100
AcDbEntity
  8
Layer_1
 62
7
100
AcDbSpline
 70
8
 71
3
 72
8
 73
4
 74
0
 40
0
 40
0
 40
0
 40
0
 40
1
 40
1
 40
1
 40
1
 10
102.130714
 20
254.928030
 30
0.0
 10
102.075593
 20
255.438824
 30
0.0
 10
101.888179
 20
255.824675
 30
0.0
 10
101.568475
 20
256.085584
 30
0.0
  0
SPLINE
  5
194
100
AcDbEntity
  8
Layer_1
 62
7
100
AcDbSpline
 70
8
 71
3
 72
8
 73
4
 74
0
 40
0
 40
0
 40
0
 40
0
 40
1
 40
1
 40
1
 40
1
 10
101.568475
 20
256.085584
 30
0.0
 10
101.252444
 20
256.346492
 30
0.0
 10
100.783910
 20
256.476945
 30
0.0
 10
100.162873
 20
256.476945
 30
0.0
  0
SPLINE
  5
195
100
AcDbEntity
  8
Layer_1
 62
7
100
AcDbSpline
 70
8
 71
3
 72
8
 73
4
 74
0
 40
0
 40
0
 40
0
 40
0
 40
1
 40
1
 40
1
 40
1
 10
100.162873
 20
256.476945
 30
0.0
 10
99.516113
 20
256.476945
 30
0.0
 10
99.043905
 20
256.357516
 30
0.0
 10
98.746249
 20
256.118657
 30
0.0
  0
SPLINE
  5
196
100
AcDbEntity
  8
Layer_1
 62
7
100
AcDbSpline
 70
8
 71
3
 72
8
 73
4
 74
0
 40
0
 40
0
 40
0
 40
0
 40
1
 40
1
 40
1
 40
1
 10
98.746249
 20
256.118657
 30
0.0
 10
98.452267
 20
255.883471
 30
0.0
 10
98.305276
 20
255.598676
 30
0.0
 10
98.305276
 20
255.264273
 30
0.0
  0
SPLINE
  5
197
100
AcDbEntity
  8
Layer_1
 62
7
100
AcDbSpline
 70
8
 71
3
 72
8
 73
4
 74
0
 40
0
 40
0
 40
0
 40
0
 40
1
 40
1
 40
1
 40
1
 10
98.305276
 20
255.264273
 30
0.0
 10
98.305276
 20
254.973965
 30
0.0
 10
98.410007
 20
254.735104
 30
0.0
 10
98.619468
 20
254.547691
 30
0.0
  0
SPLINE
  5
198
100
AcDbEntity
  8
Layer_1
 62
7
100
AcDbSpline
 70
8
 71
3
 72
8
 73
4
 74
0
 40
0
 40
0
 40
0
 40
0
 40
1
 40
1
 40
1
 40
1
 10
98.619468
 20
254.547691
 30
0.0
 10
98.825256
 20
254.360278
 30
0.0
 10
99.361773
 20
254.167353
 30
0.0
 10
100.229019
 20
253.968915
 30
0.0
  0
SPLINE
  5
199
100
AcDbEntity
  8
Layer_1
 62
7
100
AcDbSpline
 70
8
 71
3
 72
8
 73
4
 74
0
 40
0
 40
0
 40
0
 40
0
 40
1
 40
1
 40
1
 40
1
 10
100.229019
 20
253.968915
 30
0.0
 10
101.099941
 20
253.774152
 30
0.0
 10
101.697091
 20
253.603275
 30
0.0
 10
102.020470
 20
253.456285
 30
0.0
  0
SPLINE
  5
19a
100
AcDbEntity
  8
Layer_1
 62
7
100
AcDbSpline
 70
8
 71
3
 72
8
 73
4
 74
0
 40
0
 40
0
 40
0
 40
0
 40
1
 40
1
 40
1
 40
1
 10
102.020470
 20
253.456285
 30
0.0
 10
102.490841
 20
253.239473
 30
0.0
 10
102.838107
 20
252.963865
 30
0.0
 10
103.062267
 20
252.629462
 30
0.0
  0
SPLINE
  5
19b
100
AcDbEntity
  8
Layer_1
 62
7
100
AcDbSpline
 70
8
 71
3
 72
8
 73
4
 74
0
 40
0
 40
0
 40
0
 40
0
 40
1
 40
1
 40
1
 40
1
 10
103.062267
 20
252.629462
 30
0.0
 10
103.286429
 20
252.298731
 30
0.0
 10
103.398510
 20
251.916555
 30
0.0
 10
103.398510
 20
251.482933
 30
0.0
  0
SPLINE
  5
19c
100
AcDbEntity
  8
Layer_1
 62
7
100
AcDbSpline
 70
8
 71
3
 72
8
 73
4
 74
0
 40
0
 40
0
 40
0
 40
0
 40
1
 40
1
 40
1
 40
1
 10
103.398510
 20
251.482933
 30
0.0
 10
103.398510
 20
251.052985
 30
0.0
 10
103.275405
 20
250.646922
 30
0.0
 10
103.029194
 20
250.264746
 30
0.0
  0
SPLINE
  5
19d
100
AcDbEntity
  8
Layer_1
 62
7
100
AcDbSpline
 70
8
 71
3
 72
8
 73
4
 74
0
 40
0
 40
0
 40
0
 40
0
 40
1
 40
1
 40
1
 40
1
 10
103.029194
 20
250.264746
 30
0.0
 10
102.782985
 20
249.886244
 30
0.0
 10
102.428370
 20
249.590424
 30
0.0
 10
101.965350
 20
249.377288
 30
0.0
  0
SPLINE
  5
19e
100
AcDbEntity
  8
Layer_1
 62
7
100
AcDbSpline
 70
8
 71
3
 72
8
 73
4
 74
0
 40
0
 40
0
 40
0
 40
0
 40
1
 40
1
 40
1
 40
1
 10
101.965350
 20
249.377288
 30
0.0
 10
101.506003
 20
249.167827
 30
0.0
 10
100.987860
 20
249.063096
 30
0.0
 10
100.410920
 20
249.063096
 30
0.0
  0
SPLINE
  5
19f
100
AcDbEntity
  8
Layer_1
 62
7
100
AcDbSpline
 70
8
 71
3
 72
8
 73
4
 74
0
 40
0
 40
0
 40
0
 40
0
 40
1
 40
1
 40
1
 40
1
 10
100.410920
 20
249.063096
 30
0.0
 10
99.679641
 20
249.063096
 30
0.0
 10
99.065955
 20
249.169664
 30
0.0
 10
98.569859
 20
249.382800
 30
0.0
  0
SPLINE
  5
1a0
100
AcDbEntity
  8
Layer_1
 62
7
100
AcDbSpline
 70
8
 71
3
 72
8
 73
4
 74
0
 40
0
 40
0
 40
0
 40
0
 40
1
 40
1
 40
1
 40
1
 10
98.569859
 20
249.382800
 30
0.0
 10
98.077439
 20
249.595937
 30
0.0
 10
97.689752
 20
249.915643
 30
0.0
 10
97.406796
 20
250.341917
 30
0.0
  0
SPLINE
  5
1a1
100
AcDbEntity
  8
Layer_1
 62
7
100
AcDbSpline
 70
8
 71
3
 72
8
 73
4
 74
0
 40
0
 40
0
 40
0
 40
0
 40
1
 40
1
 40
1
 40
1
 10
97.406796
 20
250.341917
 30
0.0
 10
97.127512
 20
250.771865
 30
0.0
 10
96.980521
 20
251.256934
 30
0.0
 10
96.965823
 20
251.797125
 30
0.0
  0
LWPOLYLINE
  5
1a2
100
AcDbEntity
  8
Layer_1
 62
7
100
AcDbPolyline
 90
2
 70
0
 10
103.155975
 20
255.005201
 30
0.0
 10
102.130714
 20
254.928030
 30
0.0
  0
LWPOLYLINE
  5
1a3
100
AcDbEntity
  8
Layer_1
 62
7
100
AcDbPolyline
 90
1
 70
1
 10
96.965823
 20
251.797125
 30
0.0
  0
SPLINE
  5
1a4
100
AcDbEntity
  8
Layer_1
 62
7
100
AcDbSpline
 70
8
 71
3
 72
8
 73
4
 74
0
 40
0
 40
0
 40
0
 40
0
 40
1
 40
1
 40
1
 40
1
 10
107.042042
 20
249.211924
 30
0.0
 10
106.762760
 20
249.153128
 30
0.0
 10
106.512876
 20
249.123730
 30
0.0
 10
106.292388
 20
249.123730
 30
0.0
  0
SPLINE
  5
1a5
100
AcDbEntity
  8
Layer_1
 62
7
100
AcDbSpline
 70
8
 71
3
 72
8
 73
4
 74
0
 40
0
 40
0
 40
0
 40
0
 40
1
 40
1
 40
1
 40
1
 10
106.292388
 20
249.123730
 30
0.0
 10
105.932262
 20
249.123730
 30
0.0
 10
105.652980
 20
249.180689
 30
0.0
 10
105.454542
 20
249.294606
 30
0.0
  0
SPLINE
  5
1a6
100
AcDbEntity
  8
Layer_1
 62
7
100
AcDbSpline
 70
8
 71
3
 72
8
 73
4
 74
0
 40
0
 40
0
 40
0
 40
0
 40
1
 40
1
 40
1
 40
1
 10
105.454542
 20
249.294606
 30
0.0
 10
105.256103
 20
249.408523
 30
0.0
 10
105.116461
 20
249.557351
 30
0.0
 10
105.035617
 20
249.741090
 30
0.0
  0
SPLINE
  5
1a7
100
AcDbEntity
  8
Layer_1
 62
7
100
AcDbSpline
 70
8
 71
3
 72
8
 73
4
 74
0
 40
0
 40
0
 40
0
 40
0
 40
1
 40
1
 40
1
 40
1
 10
105.035617
 20
249.741090
 30
0.0
 10
104.954773
 20
249.928504
 30
0.0
 10
104.914350
 20
250.319867
 30
0.0
 10
104.914350
 20
250.915179
 30
0.0
  0
LWPOLYLINE
  5
1a8
100
AcDbEntity
  8
Layer_1
 62
7
100
AcDbPolyline
 90
2
 70
0
 10
106.898725
 20
250.088356
 30
0.0
 10
107.042042
 20
249.211924
 30
0.0
  0
SPLINE
  5
1a9
100
AcDbEntity
  8
Layer_1
 62
7
100
AcDbSpline
 70
8
 71
3
 72
8
 73
4
 74
0
 40
0
 40
0
 40
0
 40
0
 40
1
 40
1
 40
1
 40
1
 10
105.901027
 20
250.860058
 30
0.0
 10
105.901027
 20
250.577101
 30
0.0
 10
105.917563
 20
250.395200
 30
0.0
 10
105.950636
 20
250.314355
 30
0.0
  0
SPLINE
  5
1aa
100
AcDbEntity
  8
Layer_1
 62
7
100
AcDbSpline
 70
8
 71
3
 72
8
 73
4
 74
0
 40
0
 40
0
 40
0
 40
0
 40
1
 40
1
 40
1
 40
1
 10
105.950636
 20
250.314355
 30
0.0
 10
105.987383
 20
250.233511
 30
0.0
 10
106.044342
 20
250.169202
 30
0.0
 10
106.121512
 20
250.121429
 30
0.0
  0
SPLINE
  5
1ab
100
AcDbEntity
  8
Layer_1
 62
7
100
AcDbSpline
 70
8
 71
3
 72
8
 73
4
 74
0
 40
0
 40
0
 40
0
 40
0
 40
1
 40
1
 40
1
 40
1
 10
106.121512
 20
250.121429
 30
0.0
 10
106.202356
 20
250.073658
 30
0.0
 10
106.316274
 20
250.049772
 30
0.0
 10
106.463266
 20
250.049772
 30
0.0
  0
SPLINE
  5
1ac
100
AcDbEntity
  8
Layer_1
 62
7
100
AcDbSpline
 70
8
 71
3
 72
8
 73
4
 74
0
 40
0
 40
0
 40
0
 40
0
 40
1
 40
1
 40
1
 40
1
 10
106.463266
 20
250.049772
 30
0.0
 10
106.573509
 20
250.049772
 30
0.0
 10
106.718662
 20
250.062633
 30
0.0
 10
106.898725
 20
250.088356
 30
0.0
  0
LWPOLYLINE
  5
1ad
100
AcDbEntity
  8
Layer_1
 62
7
100
AcDbPolyline
 90
12
 70
0
 10
104.914350
 20
250.915179
 30
0.0
 10
104.914350
 20
254.283108
 30
0.0
 10
104.186746
 20
254.283108
 30
0.0
 10
104.186746
 20
255.054810
 30
0.0
 10
104.914350
 20
255.054810
 30
0.0
 10
104.914350
 20
256.504507
 30
0.0
 10
105.901027
 20
257.099820
 30
0.0
 10
105.901027
 20
255.054810
 30
0.0
 10
106.898725
 20
255.054810
 30
0.0
 10
106.898725
 20
254.283108
 30
0.0
 10
105.901027
 20
254.283108
 30
0.0
 10
105.901027
 20
250.860058
 30
0.0
  0
LWPOLYLINE
  5
1ae
100
AcDbEntity
  8
Layer_1
 62
7
100
AcDbPolyline
 90
1
 70
1
 10
106.898725
 20
250.088356
 30
0.0
  0
SPLINE
  5
1af
100
AcDbEntity
  8
Layer_1
 62
7
100
AcDbSpline
 70
8
 71
3
 72
8
 73
4
 74
0
 40
0
 40
0
 40
0
 40
0
 40
1
 40
1
 40
1
 40
1
 10
108.750814
 20
254.167353
 30
0.0
 10
108.978650
 20
254.582602
 30
0.0
 10
109.188112
 20
254.856373
 30
0.0
 10
109.379199
 20
254.988664
 30
0.0
  0
SPLINE
  5
1b0
100
AcDbEntity
  8
Layer_1
 62
7
100
AcDbSpline
 70
8
 71
3
 72
8
 73
4
 74
0
 40
0
 40
0
 40
0
 40
0
 40
1
 40
1
 40
1
 40
1
 10
109.379199
 20
254.988664
 30
0.0
 10
109.573963
 20
255.120956
 30
0.0
 10
109.787100
 20
255.187102
 30
0.0
 10
110.018610
 20
255.187102
 30
0.0
  0
SPLINE
  5
1b1
100
AcDbEntity
  8
Layer_1
 62
7
100
AcDbSpline
 70
8
 71
3
 72
8
 73
4
 74
0
 40
0
 40
0
 40
0
 40
0
 40
1
 40
1
 40
1
 40
1
 10
110.018610
 20
255.187102
 30
0.0
 10
110.353013
 20
255.187102
 30
0.0
 10
110.692930
 20
255.080534
 30
0.0
 10
111.038359
 20
254.867398
 30
0.0
  0
LWPOLYLINE
  5
1b2
100
AcDbEntity
  8
Layer_1
 62
7
100
AcDbPolyline
 90
4
 70
0
 10
107.857845
 20
249.200899
 30
0.0
 10
107.857845
 20
255.054810
 30
0.0
 10
108.750814
 20
255.054810
 30
0.0
 10
108.750814
 20
254.167353
 30
0.0
  0
SPLINE
  5
1b3
100
AcDbEntity
  8
Layer_1
 62
7
100
AcDbSpline
 70
8
 71
3
 72
8
 73
4
 74
0
 40
0
 40
0
 40
0
 40
0
 40
1
 40
1
 40
1
 40
1
 10
110.696605
 20
253.946867
 30
0.0
 10
110.454070
 20
254.090183
 30
0.0
 10
110.211535
 20
254.161841
 30
0.0
 10
109.969001
 20
254.161841
 30
0.0
  0
SPLINE
  5
1b4
100
AcDbEntity
  8
Layer_1
 62
7
100
AcDbSpline
 70
8
 71
3
 72
8
 73
4
 74
0
 40
0
 40
0
 40
0
 40
0
 40
1
 40
1
 40
1
 40
1
 10
109.969001
 20
254.161841
 30
0.0
 10
109.752189
 20
254.161841
 30
0.0
 10
109.557425
 20
254.095696
 30
0.0
 10
109.384711
 20
253.963404
 30
0.0
  0
SPLINE
  5
1b5
100
AcDbEntity
  8
Layer_1
 62
7
100
AcDbSpline
 70
8
 71
3
 72
8
 73
4
 74
0
 40
0
 40
0
 40
0
 40
0
 40
1
 40
1
 40
1
 40
1
 10
109.384711
 20
253.963404
 30
0.0
 10
109.211998
 20
253.834786
 30
0.0
 10
109.088893
 20
253.654722
 30
0.0
 10
109.015397
 20
253.423212
 30
0.0
  0
SPLINE
  5
1b6
100
AcDbEntity
  8
Layer_1
 62
7
100
AcDbSpline
 70
8
 71
3
 72
8
 73
4
 74
0
 40
0
 40
0
 40
0
 40
0
 40
1
 40
1
 40
1
 40
1
 10
109.015397
 20
253.423212
 30
0.0
 10
108.905154
 20
253.070434
 30
0.0
 10
108.850033
 20
252.684583
 30
0.0
 10
108.850033
 20
252.265657
 30
0.0
  0
LWPOLYLINE
  5
1b7
100
AcDbEntity
  8
Layer_1
 62
7
100
AcDbPolyline
 90
2
 70
0
 10
111.038359
 20
254.867398
 30
0.0
 10
110.696605
 20
253.946867
 30
0.0
  0
SPLINE
  5
1b8
100
AcDbEntity
  8
Layer_1
 62
7
100
AcDbSpline
 70
8
 71
3
 72
8
 73
4
 74
0
 40
0
 40
0
 40
0
 40
0
 40
1
 40
1
 40
1
 40
1
 10
115.448085
 20
249.922992
 30
0.0
 10
115.080607
 20
249.610637
 30
0.0
 10
114.725991
 20
249.390151
 30
0.0
 10
114.384238
 20
249.261533
 30
0.0
  0
SPLINE
  5
1b9
100
AcDbEntity
  8
Layer_1
 62
7
100
AcDbSpline
 70
8
 71
3
 72
8
 73
4
 74
0
 40
0
 40
0
 40
0
 40
0
 40
1
 40
1
 40
1
 40
1
 10
114.384238
 20
249.261533
 30
0.0
 10
114.046158
 20
249.132916
 30
0.0
 10
113.682356
 20
249.068607
 30
0.0
 10
113.292831
 20
249.068607
 30
0.0
  0
SPLINE
  5
1ba
100
AcDbEntity
  8
Layer_1
 62
7
100
AcDbSpline
 70
8
 71
3
 72
8
 73
4
 74
0
 40
0
 40
0
 40
0
 40
0
 40
1
 40
1
 40
1
 40
1
 10
113.292831
 20
249.068607
 30
0.0
 10
112.649746
 20
249.068607
 30
0.0
 10
112.155489
 20
249.224785
 30
0.0
 10
111.810061
 20
249.537142
 30
0.0
  0
SPLINE
  5
1bb
100
AcDbEntity
  8
Layer_1
 62
7
100
AcDbSpline
 70
8
 71
3
 72
8
 73
4
 74
0
 40
0
 40
0
 40
0
 40
0
 40
1
 40
1
 40
1
 40
1
 10
111.810061
 20
249.537142
 30
0.0
 10
111.464632
 20
249.853171
 30
0.0
 10
111.291917
 20
250.255558
 30
0.0
 10
111.291917
 20
250.744303
 30
0.0
  0
SPLINE
  5
1bc
100
AcDbEntity
  8
Layer_1
 62
7
100
AcDbSpline
 70
8
 71
3
 72
8
 73
4
 74
0
 40
0
 40
0
 40
0
 40
0
 40
1
 40
1
 40
1
 40
1
 10
111.291917
 20
250.744303
 30
0.0
 10
111.291917
 20
251.030935
 30
0.0
 10
111.356226
 20
251.291844
 30
0.0
 10
111.484843
 20
251.527031
 30
0.0
  0
SPLINE
  5
1bd
100
AcDbEntity
  8
Layer_1
 62
7
100
AcDbSpline
 70
8
 71
3
 72
8
 73
4
 74
0
 40
0
 40
0
 40
0
 40
0
 40
1
 40
1
 40
1
 40
1
 10
111.484843
 20
251.527031
 30
0.0
 10
111.617135
 20
251.765889
 30
0.0
 10
111.788012
 20
251.956977
 30
0.0
 10
111.997474
 20
252.100293
 30
0.0
  0
SPLINE
  5
1be
100
AcDbEntity
  8
Layer_1
 62
7
100
AcDbSpline
 70
8
 71
3
 72
8
 73
4
 74
0
 40
0
 40
0
 40
0
 40
0
 40
1
 40
1
 40
1
 40
1
 10
111.997474
 20
252.100293
 30
0.0
 10
112.210611
 20
252.243609
 30
0.0
 10
112.449472
 20
252.352015
 30
0.0
 10
112.714055
 20
252.425511
 30
0.0
  0
SPLINE
  5
1bf
100
AcDbEntity
  8
Layer_1
 62
7
100
AcDbSpline
 70
8
 71
3
 72
8
 73
4
 74
0
 40
0
 40
0
 40
0
 40
0
 40
1
 40
1
 40
1
 40
1
 10
112.714055
 20
252.425511
 30
0.0
 10
112.908817
 20
252.476958
 30
0.0
 10
113.202798
 20
252.526567
 30
0.0
 10
113.595999
 20
252.574339
 30
0.0
  0
SPLINE
  5
1c0
100
AcDbEntity
  8
Layer_1
 62
7
100
AcDbSpline
 70
8
 71
3
 72
8
 73
4
 74
0
 40
0
 40
0
 40
0
 40
0
 40
1
 40
1
 40
1
 40
1
 10
113.595999
 20
252.574339
 30
0.0
 10
114.397099
 20
252.669883
 30
0.0
 10
114.986900
 20
252.783801
 30
0.0
 10
115.365402
 20
252.916093
 30
0.0
  0
SPLINE
  5
1c1
100
AcDbEntity
  8
Layer_1
 62
7
100
AcDbSpline
 70
8
 71
3
 72
8
 73
4
 74
0
 40
0
 40
0
 40
0
 40
0
 40
1
 40
1
 40
1
 40
1
 10
115.365402
 20
252.916093
 30
0.0
 10
115.369071
 20
253.052059
 30
0.0
 10
115.370906
 20
253.138416
 30
0.0
 10
115.370906
 20
253.175165
 30
0.0
  0
SPLINE
  5
1c2
100
AcDbEntity
  8
Layer_1
 62
7
100
AcDbSpline
 70
8
 71
3
 72
8
 73
4
 74
0
 40
0
 40
0
 40
0
 40
0
 40
1
 40
1
 40
1
 40
1
 10
115.370906
 20
253.175165
 30
0.0
 10
115.370906
 20
253.579390
 30
0.0
 10
115.277199
 20
253.864185
 30
0.0
 10
115.089786
 20
254.029550
 30
0.0
  0
SPLINE
  5
1c3
100
AcDbEntity
  8
Layer_1
 62
7
100
AcDbSpline
 70
8
 71
3
 72
8
 73
4
 74
0
 40
0
 40
0
 40
0
 40
0
 40
1
 40
1
 40
1
 40
1
 10
115.089786
 20
254.029550
 30
0.0
 10
114.836227
 20
254.253710
 30
0.0
 10
114.459563
 20
254.365790
 30
0.0
 10
113.959793
 20
254.365790
 30
0.0
  0
SPLINE
  5
1c4
100
AcDbEntity
  8
Layer_1
 62
7
100
AcDbSpline
 70
8
 71
3
 72
8
 73
4
 74
0
 40
0
 40
0
 40
0
 40
0
 40
1
 40
1
 40
1
 40
1
 10
113.959793
 20
254.365790
 30
0.0
 10
113.493098
 20
254.365790
 30
0.0
 10
113.147669
 20
254.283108
 30
0.0
 10
112.923507
 20
254.117743
 30
0.0
  0
SPLINE
  5
1c5
100
AcDbEntity
  8
Layer_1
 62
7
100
AcDbSpline
 70
8
 71
3
 72
8
 73
4
 74
0
 40
0
 40
0
 40
0
 40
0
 40
1
 40
1
 40
1
 40
1
 10
112.923507
 20
254.117743
 30
0.0
 10
112.703021
 20
253.956053
 30
0.0
 10
112.539495
 20
253.667583
 30
0.0
 10
112.432928
 20
253.252334
 30
0.0
  0
LWPOLYLINE
  5
1c6
100
AcDbEntity
  8
Layer_1
 62
7
100
AcDbPolyline
 90
3
 70
0
 10
108.850033
 20
252.265657
 30
0.0
 10
108.850033
 20
249.200899
 30
0.0
 10
107.857845
 20
249.200899
 30
0.0
  0
SPLINE
  5
1c7
100
AcDbEntity
  8
Layer_1
 62
7
100
AcDbSpline
 70
8
 71
3
 72
8
 73
4
 74
0
 40
0
 40
0
 40
0
 40
0
 40
1
 40
1
 40
1
 40
1
 10
111.462788
 20
253.384625
 30
0.0
 10
111.550982
 20
253.799875
 30
0.0
 10
111.696135
 20
254.134279
 30
0.0
 10
111.898247
 20
254.387838
 30
0.0
  0
SPLINE
  5
1c8
100
AcDbEntity
  8
Layer_1
 62
7
100
AcDbSpline
 70
8
 71
3
 72
8
 73
4
 74
0
 40
0
 40
0
 40
0
 40
0
 40
1
 40
1
 40
1
 40
1
 10
111.898247
 20
254.387838
 30
0.0
 10
112.100360
 20
254.645073
 30
0.0
 10
112.392504
 20
254.841673
 30
0.0
 10
112.774679
 20
254.977639
 30
0.0
  0
SPLINE
  5
1c9
100
AcDbEntity
  8
Layer_1
 62
7
100
AcDbSpline
 70
8
 71
3
 72
8
 73
4
 74
0
 40
0
 40
0
 40
0
 40
0
 40
1
 40
1
 40
1
 40
1
 10
112.774679
 20
254.977639
 30
0.0
 10
113.156856
 20
255.117281
 30
0.0
 10
113.599666
 20
255.187102
 30
0.0
 10
114.103110
 20
255.187102
 30
0.0
  0
SPLINE
  5
1ca
100
AcDbEntity
  8
Layer_1
 62
7
100
AcDbSpline
 70
8
 71
3
 72
8
 73
4
 74
0
 40
0
 40
0
 40
0
 40
0
 40
1
 40
1
 40
1
 40
1
 10
114.103110
 20
255.187102
 30
0.0
 10
114.602879
 20
255.187102
 30
0.0
 10
115.008942
 20
255.128305
 30
0.0
 10
115.321296
 20
255.010712
 30
0.0
  0
SPLINE
  5
1cb
100
AcDbEntity
  8
Layer_1
 62
7
100
AcDbSpline
 70
8
 71
3
 72
8
 73
4
 74
0
 40
0
 40
0
 40
0
 40
0
 40
1
 40
1
 40
1
 40
1
 10
115.321296
 20
255.010712
 30
0.0
 10
115.633653
 20
254.893121
 30
0.0
 10
115.863326
 20
254.744292
 30
0.0
 10
116.010316
 20
254.564228
 30
0.0
  0
SPLINE
  5
1cc
100
AcDbEntity
  8
Layer_1
 62
7
100
AcDbSpline
 70
8
 71
3
 72
8
 73
4
 74
0
 40
0
 40
0
 40
0
 40
0
 40
1
 40
1
 40
1
 40
1
 10
116.010316
 20
254.564228
 30
0.0
 10
116.157307
 20
254.387839
 30
0.0
 10
116.260200
 20
254.163678
 30
0.0
 10
116.318998
 20
253.891744
 30
0.0
  0
SPLINE
  5
1cd
100
AcDbEntity
  8
Layer_1
 62
7
100
AcDbSpline
 70
8
 71
3
 72
8
 73
4
 74
0
 40
0
 40
0
 40
0
 40
0
 40
1
 40
1
 40
1
 40
1
 10
116.318998
 20
253.891744
 30
0.0
 10
116.352071
 20
253.722705
 30
0.0
 10
116.368607
 20
253.417700
 30
0.0
 10
116.368607
 20
252.976728
 30
0.0
  0
LWPOLYLINE
  5
1ce
100
AcDbEntity
  8
Layer_1
 62
7
100
AcDbPolyline
 90
2
 70
0
 10
112.432928
 20
253.252334
 30
0.0
 10
111.462788
 20
253.384625
 30
0.0
  0
SPLINE
  5
1cf
100
AcDbEntity
  8
Layer_1
 62
7
100
AcDbSpline
 70
8
 71
3
 72
8
 73
4
 74
0
 40
0
 40
0
 40
0
 40
0
 40
1
 40
1
 40
1
 40
1
 10
116.368607
 20
251.653808
 30
0.0
 10
116.368607
 20
250.731441
 30
0.0
 10
116.388818
 20
250.147153
 30
0.0
 10
116.429239
 20
249.900944
 30
0.0
  0
SPLINE
  5
1d0
100
AcDbEntity
  8
Layer_1
 62
7
100
AcDbSpline
 70
8
 71
3
 72
8
 73
4
 74
0
 40
0
 40
0
 40
0
 40
0
 40
1
 40
1
 40
1
 40
1
 10
116.429239
 20
249.900944
 30
0.0
 10
116.473336
 20
249.658409
 30
0.0
 10
116.557857
 20
249.425061
 30
0.0
 10
116.682800
 20
249.200899
 30
0.0
  0
LWPOLYLINE
  5
1d1
100
AcDbEntity
  8
Layer_1
 62
7
100
AcDbPolyline
 90
2
 70
0
 10
116.368607
 20
252.976728
 30
0.0
 10
116.368607
 20
251.653808
 30
0.0
  0
SPLINE
  5
1d2
100
AcDbEntity
  8
Layer_1
 62
7
100
AcDbSpline
 70
8
 71
3
 72
8
 73
4
 74
0
 40
0
 40
0
 40
0
 40
0
 40
1
 40
1
 40
1
 40
1
 10
115.646514
 20
249.200899
 30
0.0
 10
115.543620
 20
249.406686
 30
0.0
 10
115.477474
 20
249.647384
 30
0.0
 10
115.448077
 20
249.922992
 30
0.0
  0
LWPOLYLINE
  5
1d3
100
AcDbEntity
  8
Layer_1
 62
7
100
AcDbPolyline
 90
2
 70
0
 10
116.682800
 20
249.200899
 30
0.0
 10
115.646514
 20
249.200899
 30
0.0
  0
SPLINE
  5
1d4
100
AcDbEntity
  8
Layer_1
 62
7
100
AcDbSpline
 70
8
 71
3
 72
8
 73
4
 74
0
 40
0
 40
0
 40
0
 40
0
 40
1
 40
1
 40
1
 40
1
 10
115.365402
 20
252.138880
 30
0.0
 10
115.005275
 20
251.991888
 30
0.0
 10
114.465083
 20
251.866945
 30
0.0
 10
113.744827
 20
251.764052
 30
0.0
  0
SPLINE
  5
1d5
100
AcDbEntity
  8
Layer_1
 62
7
100
AcDbSpline
 70
8
 71
3
 72
8
 73
4
 74
0
 40
0
 40
0
 40
0
 40
0
 40
1
 40
1
 40
1
 40
1
 10
113.744827
 20
251.764052
 30
0.0
 10
113.336928
 20
251.705257
 30
0.0
 10
113.048459
 20
251.639111
 30
0.0
 10
112.879420
 20
251.565615
 30
0.0
  0
SPLINE
  5
1d6
100
AcDbEntity
  8
Layer_1
 62
7
100
AcDbSpline
 70
8
 71
3
 72
8
 73
4
 74
0
 40
0
 40
0
 40
0
 40
0
 40
1
 40
1
 40
1
 40
1
 10
112.879420
 20
251.565615
 30
0.0
 10
112.710379
 20
251.492119
 30
0.0
 10
112.579925
 20
251.383713
 30
0.0
 10
112.488056
 20
251.240397
 30
0.0
  0
SPLINE
  5
1d7
100
AcDbEntity
  8
Layer_1
 62
7
100
AcDbSpline
 70
8
 71
3
 72
8
 73
4
 74
0
 40
0
 40
0
 40
0
 40
0
 40
1
 40
1
 40
1
 40
1
 10
112.488056
 20
251.240397
 30
0.0
 10
112.396187
 20
251.100755
 30
0.0
 10
112.350253
 20
250.944578
 30
0.0
 10
112.350253
 20
250.771865
 30
0.0
  0
SPLINE
  5
1d8
100
AcDbEntity
  8
Layer_1
 62
7
100
AcDbSpline
 70
8
 71
3
 72
8
 73
4
 74
0
 40
0
 40
0
 40
0
 40
0
 40
1
 40
1
 40
1
 40
1
 10
112.350253
 20
250.771865
 30
0.0
 10
112.350253
 20
250.507281
 30
0.0
 10
112.449472
 20
250.286795
 30
0.0
 10
112.647909
 20
250.110406
 30
0.0
  0
SPLINE
  5
1d9
100
AcDbEntity
  8
Layer_1
 62
7
100
AcDbSpline
 70
8
 71
3
 72
8
 73
4
 74
0
 40
0
 40
0
 40
0
 40
0
 40
1
 40
1
 40
1
 40
1
 10
112.647909
 20
250.110406
 30
0.0
 10
112.850021
 20
249.934016
 30
0.0
 10
113.144002
 20
249.845820
 30
0.0
 10
113.529853
 20
249.845820
 30
0.0
  0
SPLINE
  5
1da
100
AcDbEntity
  8
Layer_1
 62
7
100
AcDbSpline
 70
8
 71
3
 72
8
 73
4
 74
0
 40
0
 40
0
 40
0
 40
0
 40
1
 40
1
 40
1
 40
1
 10
113.529853
 20
249.845820
 30
0.0
 10
113.912029
 20
249.845820
 30
0.0
 10
114.251946
 20
249.928504
 30
0.0
 10
114.549602
 20
250.093870
 30
0.0
  0
SPLINE
  5
1db
100
AcDbEntity
  8
Layer_1
 62
7
100
AcDbSpline
 70
8
 71
3
 72
8
 73
4
 74
0
 40
0
 40
0
 40
0
 40
0
 40
1
 40
1
 40
1
 40
1
 10
114.549602
 20
250.093870
 30
0.0
 10
114.847258
 20
250.262909
 30
0.0
 10
115.065907
 20
250.492581
 30
0.0
 10
115.205549
 20
250.782887
 30
0.0
  0
SPLINE
  5
1dc
100
AcDbEntity
  8
Layer_1
 62
7
100
AcDbSpline
 70
8
 71
3
 72
8
 73
4
 74
0
 40
0
 40
0
 40
0
 40
0
 40
1
 40
1
 40
1
 40
1
 10
115.205549
 20
250.782887
 30
0.0
 10
115.312118
 20
251.007049
 30
0.0
 10
115.365402
 20
251.337779
 30
0.0
 10
115.365402
 20
251.775077
 30
0.0
  0
LWPOLYLINE
  5
1dd
100
AcDbEntity
  8
Layer_1
 62
7
100
AcDbPolyline
 90
1
 70
1
 10
115.448077
 20
249.922992
 30
0.0
  0
LWPOLYLINE
  5
1de
100
AcDbEntity
  8
Layer_1
 62
7
100
AcDbPolyline
 90
2
 70
0
 10
115.365402
 20
251.775077
 30
0.0
 10
115.365402
 20
252.138880
 30
0.0
  0
SPLINE
  5
1df
100
AcDbEntity
  8
Layer_1
 62
7
100
AcDbSpline
 70
8
 71
3
 72
8
 73
4
 74
0
 40
0
 40
0
 40
0
 40
0
 40
1
 40
1
 40
1
 40
1
 10
119.499517
 20
250.419085
 30
0.0
 10
119.514210
 20
250.481557
 30
0.0
 10
119.615266
 20
250.883945
 30
0.0
 10
119.802685
 20
251.626249
 30
0.0
  0
LWPOLYLINE
  5
1e0
100
AcDbEntity
  8
Layer_1
 62
7
100
AcDbPolyline
 90
5
 70
0
 10
118.986887
 20
249.200899
 30
0.0
 10
117.195435
 20
255.054810
 30
0.0
 10
118.220696
 20
255.054810
 30
0.0
 10
119.152251
 20
251.675859
 30
0.0
 10
119.499517
 20
250.419085
 30
0.0
  0
LWPOLYLINE
  5
1e1
100
AcDbEntity
  8
Layer_1
 62
7
100
AcDbPolyline
 90
14
 70
0
 10
119.802685
 20
251.626249
 30
0.0
 10
120.734240
 20
255.054810
 30
0.0
 10
121.753989
 20
255.054810
 30
0.0
 10
122.630421
 20
251.659322
 30
0.0
 10
122.922566
 20
250.540354
 30
0.0
 10
123.258807
 20
251.670345
 30
0.0
 10
124.262020
 20
255.054810
 30
0.0
 10
125.226648
 20
255.054810
 30
0.0
 10
123.396610
 20
249.200899
 30
0.0
 10
122.365838
 20
249.200899
 30
0.0
 10
121.434283
 20
252.706630
 30
0.0
 10
121.208283
 20
253.704332
 30
0.0
 10
120.023170
 20
249.200899
 30
0.0
 10
118.986887
 20
249.200899
 30
0.0
  0
SPLINE
  5
1e2
100
AcDbEntity
  8
Layer_1
 62
7
100
AcDbSpline
 70
8
 71
3
 72
8
 73
4
 74
0
 40
0
 40
0
 40
0
 40
0
 40
1
 40
1
 40
1
 40
1
 10
127.045656
 20
254.398863
 30
0.0
 10
127.464581
 20
254.924356
 30
0.0
 10
127.999261
 20
255.187102
 30
0.0
 10
128.649695
 20
255.187102
 30
0.0
  0
SPLINE
  5
1e3
100
AcDbEntity
  8
Layer_1
 62
7
100
AcDbSpline
 70
8
 71
3
 72
8
 73
4
 74
0
 40
0
 40
0
 40
0
 40
0
 40
1
 40
1
 40
1
 40
1
 10
128.649695
 20
255.187102
 30
0.0
 10
129.009823
 20
255.187102
 30
0.0
 10
129.349739
 20
255.113607
 30
0.0
 10
129.669444
 20
254.966617
 30
0.0
  0
SPLINE
  5
1e4
100
AcDbEntity
  8
Layer_1
 62
7
100
AcDbSpline
 70
8
 71
3
 72
8
 73
4
 74
0
 40
0
 40
0
 40
0
 40
0
 40
1
 40
1
 40
1
 40
1
 10
129.669444
 20
254.966617
 30
0.0
 10
129.992823
 20
254.823299
 30
0.0
 10
130.257406
 20
254.619348
 30
0.0
 10
130.463194
 20
254.354765
 30
0.0
  0
SPLINE
  5
1e5
100
AcDbEntity
  8
Layer_1
 62
7
100
AcDbSpline
 70
8
 71
3
 72
8
 73
4
 74
0
 40
0
 40
0
 40
0
 40
0
 40
1
 40
1
 40
1
 40
1
 10
130.463194
 20
254.354765
 30
0.0
 10
130.672656
 20
254.093858
 30
0.0
 10
130.836183
 20
253.777828
 30
0.0
 10
130.953776
 20
253.406676
 30
0.0
  0
SPLINE
  5
1e6
100
AcDbEntity
  8
Layer_1
 62
7
100
AcDbSpline
 70
8
 71
3
 72
8
 73
4
 74
0
 40
0
 40
0
 40
0
 40
0
 40
1
 40
1
 40
1
 40
1
 10
130.953776
 20
253.406676
 30
0.0
 10
131.071370
 20
253.035523
 30
0.0
 10
131.130166
 20
252.638647
 30
0.0
 10
131.130166
 20
252.216048
 30
0.0
  0
SPLINE
  5
1e7
100
AcDbEntity
  8
Layer_1
 62
7
100
AcDbSpline
 70
8
 71
3
 72
8
 73
4
 74
0
 40
0
 40
0
 40
0
 40
0
 40
1
 40
1
 40
1
 40
1
 10
131.130166
 20
252.216048
 30
0.0
 10
131.130166
 20
251.212836
 30
0.0
 10
130.882119
 20
250.437460
 30
0.0
 10
130.386023
 20
249.889919
 30
0.0
  0
SPLINE
  5
1e8
100
AcDbEntity
  8
Layer_1
 62
7
100
AcDbSpline
 70
8
 71
3
 72
8
 73
4
 74
0
 40
0
 40
0
 40
0
 40
0
 40
1
 40
1
 40
1
 40
1
 10
130.386023
 20
249.889919
 30
0.0
 10
129.889929
 20
249.342378
 30
0.0
 10
129.294617
 20
249.068607
 30
0.0
 10
128.600086
 20
249.068607
 30
0.0
  0
SPLINE
  5
1e9
100
AcDbEntity
  8
Layer_1
 62
7
100
AcDbSpline
 70
8
 71
3
 72
8
 73
4
 74
0
 40
0
 40
0
 40
0
 40
0
 40
1
 40
1
 40
1
 40
1
 10
128.600086
 20
249.068607
 30
0.0
 10
127.909228
 20
249.068607
 30
0.0
 10
127.367200
 20
249.357077
 30
0.0
 10
126.973999
 20
249.934017
 30
0.0
  0
LWPOLYLINE
  5
1ea
100
AcDbEntity
  8
Layer_1
 62
7
100
AcDbPolyline
 90
5
 70
0
 10
126.973999
 20
249.200899
 30
0.0
 10
126.053468
 20
249.200899
 30
0.0
 10
126.053468
 20
257.281721
 30
0.0
 10
127.045656
 20
257.281721
 30
0.0
 10
127.045656
 20
254.398863
 30
0.0
  0
SPLINE
  5
1eb
100
AcDbEntity
  8
Layer_1
 62
7
100
AcDbSpline
 70
8
 71
3
 72
8
 73
4
 74
0
 40
0
 40
0
 40
0
 40
0
 40
1
 40
1
 40
1
 40
1
 10
126.962966
 20
252.171952
 30
0.0
 10
126.962966
 20
251.470071
 30
0.0
 10
127.058510
 20
250.962952
 30
0.0
 10
127.249599
 20
250.650596
 30
0.0
  0
SPLINE
  5
1ec
100
AcDbEntity
  8
Layer_1
 62
7
100
AcDbSpline
 70
8
 71
3
 72
8
 73
4
 74
0
 40
0
 40
0
 40
0
 40
0
 40
1
 40
1
 40
1
 40
1
 10
127.249599
 20
250.650596
 30
0.0
 10
127.561954
 20
250.139803
 30
0.0
 10
127.984553
 20
249.884407
 30
0.0
 10
128.517395
 20
249.884407
 30
0.0
  0
SPLINE
  5
1ed
100
AcDbEntity
  8
Layer_1
 62
7
100
AcDbSpline
 70
8
 71
3
 72
8
 73
4
 74
0
 40
0
 40
0
 40
0
 40
0
 40
1
 40
1
 40
1
 40
1
 10
128.517395
 20
249.884407
 30
0.0
 10
128.951017
 20
249.884407
 30
0.0
 10
129.325844
 20
250.071821
 30
0.0
 10
129.641874
 20
250.446647
 30
0.0
  0
SPLINE
  5
1ee
100
AcDbEntity
  8
Layer_1
 62
7
100
AcDbSpline
 70
8
 71
3
 72
8
 73
4
 74
0
 40
0
 40
0
 40
0
 40
0
 40
1
 40
1
 40
1
 40
1
 10
129.641874
 20
250.446647
 30
0.0
 10
129.957905
 20
250.825147
 30
0.0
 10
130.115920
 20
251.387387
 30
0.0
 10
130.115920
 20
252.133366
 30
0.0
  0
SPLINE
  5
1ef
100
AcDbEntity
  8
Layer_1
 62
7
100
AcDbSpline
 70
8
 71
3
 72
8
 73
4
 74
0
 40
0
 40
0
 40
0
 40
0
 40
1
 40
1
 40
1
 40
1
 10
130.115920
 20
252.133366
 30
0.0
 10
130.115920
 20
252.897719
 30
0.0
 10
129.963417
 20
253.461796
 30
0.0
 10
129.658411
 20
253.825598
 30
0.0
  0
SPLINE
  5
1f0
100
AcDbEntity
  8
Layer_1
 62
7
100
AcDbSpline
 70
8
 71
3
 72
8
 73
4
 74
0
 40
0
 40
0
 40
0
 40
0
 40
1
 40
1
 40
1
 40
1
 10
129.658411
 20
253.825598
 30
0.0
 10
129.357080
 20
254.189400
 30
0.0
 10
128.991440
 20
254.371301
 30
0.0
 10
128.561491
 20
254.371301
 30
0.0
  0
SPLINE
  5
1f1
100
AcDbEntity
  8
Layer_1
 62
7
100
AcDbSpline
 70
8
 71
3
 72
8
 73
4
 74
0
 40
0
 40
0
 40
0
 40
0
 40
1
 40
1
 40
1
 40
1
 10
128.561491
 20
254.371301
 30
0.0
 10
128.127869
 20
254.371301
 30
0.0
 10
127.753042
 20
254.182051
 30
0.0
 10
127.437012
 20
253.803551
 30
0.0
  0
SPLINE
  5
1f2
100
AcDbEntity
  8
Layer_1
 62
7
100
AcDbSpline
 70
8
 71
3
 72
8
 73
4
 74
0
 40
0
 40
0
 40
0
 40
0
 40
1
 40
1
 40
1
 40
1
 10
127.437012
 20
253.803551
 30
0.0
 10
127.120981
 20
253.428724
 30
0.0
 10
126.962966
 20
252.884858
 30
0.0
 10
126.962966
 20
252.171952
 30
0.0
  0
LWPOLYLINE
  5
1f3
100
AcDbEntity
  8
Layer_1
 62
7
100
AcDbPolyline
 90
2
 70
0
 10
126.973999
 20
249.934017
 30
0.0
 10
126.973999
 20
249.200899
 30
0.0
  0
LWPOLYLINE
  5
1f4
100
AcDbEntity
  8
Layer_1
 62
7
100
AcDbPolyline
 90
1
 70
1
 10
126.962966
 20
252.171952
 30
0.0
  0
SPLINE
  5
1f5
100
AcDbEntity
  8
Layer_1
 62
7
100
AcDbSpline
 70
8
 71
3
 72
8
 73
4
 74
0
 40
0
 40
0
 40
0
 40
0
 40
1
 40
1
 40
1
 40
1
 10
137.369920
 20
250.959277
 30
0.0
 10
137.208229
 20
250.360290
 30
0.0
 10
136.908735
 20
249.895432
 30
0.0
 10
136.471437
 20
249.564701
 30
0.0
  0
SPLINE
  5
1f6
100
AcDbEntity
  8
Layer_1
 62
7
100
AcDbSpline
 70
8
 71
3
 72
8
 73
4
 74
0
 40
0
 40
0
 40
0
 40
0
 40
1
 40
1
 40
1
 40
1
 10
136.471437
 20
249.564701
 30
0.0
 10
136.034139
 20
249.233972
 30
0.0
 10
135.475574
 20
249.068607
 30
0.0
 10
134.795741
 20
249.068607
 30
0.0
  0
SPLINE
  5
1f7
100
AcDbEntity
  8
Layer_1
 62
7
100
AcDbSpline
 70
8
 71
3
 72
8
 73
4
 74
0
 40
0
 40
0
 40
0
 40
0
 40
1
 40
1
 40
1
 40
1
 10
134.795741
 20
249.068607
 30
0.0
 10
133.939519
 20
249.068607
 30
0.0
 10
133.259687
 20
249.331353
 30
0.0
 10
132.756245
 20
249.856846
 30
0.0
  0
SPLINE
  5
1f8
100
AcDbEntity
  8
Layer_1
 62
7
100
AcDbSpline
 70
8
 71
3
 72
8
 73
4
 74
0
 40
0
 40
0
 40
0
 40
0
 40
1
 40
1
 40
1
 40
1
 10
132.756245
 20
249.856846
 30
0.0
 10
132.256475
 20
250.386012
 30
0.0
 10
132.006591
 20
251.126479
 30
0.0
 10
132.006591
 20
252.078245
 30
0.0
  0
SPLINE
  5
1f9
100
AcDbEntity
  8
Layer_1
 62
7
100
AcDbSpline
 70
8
 71
3
 72
8
 73
4
 74
0
 40
0
 40
0
 40
0
 40
0
 40
1
 40
1
 40
1
 40
1
 10
132.006591
 20
252.078245
 30
0.0
 10
132.006591
 20
253.063084
 30
0.0
 10
132.260150
 20
253.827436
 30
0.0
 10
132.767268
 20
254.371301
 30
0.0
  0
SPLINE
  5
1fa
100
AcDbEntity
  8
Layer_1
 62
7
100
AcDbSpline
 70
8
 71
3
 72
8
 73
4
 74
0
 40
0
 40
0
 40
0
 40
0
 40
1
 40
1
 40
1
 40
1
 10
132.767268
 20
254.371301
 30
0.0
 10
133.274386
 20
254.915168
 30
0.0
 10
133.932170
 20
255.187102
 30
0.0
 10
134.740620
 20
255.187102
 30
0.0
  0
SPLINE
  5
1fb
100
AcDbEntity
  8
Layer_1
 62
7
100
AcDbSpline
 70
8
 71
3
 72
8
 73
4
 74
0
 40
0
 40
0
 40
0
 40
0
 40
1
 40
1
 40
1
 40
1
 10
134.740620
 20
255.187102
 30
0.0
 10
135.523346
 20
255.187102
 30
0.0
 10
136.162756
 20
254.920680
 30
0.0
 10
136.658852
 20
254.387838
 30
0.0
  0
SPLINE
  5
1fc
100
AcDbEntity
  8
Layer_1
 62
7
100
AcDbSpline
 70
8
 71
3
 72
8
 73
4
 74
0
 40
0
 40
0
 40
0
 40
0
 40
1
 40
1
 40
1
 40
1
 10
136.658852
 20
254.387838
 30
0.0
 10
137.154946
 20
253.854997
 30
0.0
 10
137.402993
 20
253.105344
 30
0.0
 10
137.402993
 20
252.138880
 30
0.0
  0
SPLINE
  5
1fd
100
AcDbEntity
  8
Layer_1
 62
7
100
AcDbSpline
 70
8
 71
3
 72
8
 73
4
 74
0
 40
0
 40
0
 40
0
 40
0
 40
1
 40
1
 40
1
 40
1
 10
137.402993
 20
252.138880
 30
0.0
 10
137.402993
 20
252.080082
 30
0.0
 10
137.401158
 20
251.991888
 30
0.0
 10
137.397489
 20
251.874296
 30
0.0
  0
LWPOLYLINE
  5
1fe
100
AcDbEntity
  8
Layer_1
 62
7
100
AcDbPolyline
 90
2
 70
0
 10
136.344659
 20
251.086058
 30
0.0
 10
137.369920
 20
250.959277
 30
0.0
  0
SPLINE
  5
1ff
100
AcDbEntity
  8
Layer_1
 62
7
100
AcDbSpline
 70
8
 71
3
 72
8
 73
4
 74
0
 40
0
 40
0
 40
0
 40
0
 40
1
 40
1
 40
1
 40
1
 10
133.031859
 20
251.874296
 30
0.0
 10
133.068608
 20
251.231211
 30
0.0
 10
133.250509
 20
250.738791
 30
0.0
 10
133.577562
 20
250.397038
 30
0.0
  0
SPLINE
  5
200
100
AcDbEntity
  8
Layer_1
 62
7
100
AcDbSpline
 70
8
 71
3
 72
8
 73
4
 74
0
 40
0
 40
0
 40
0
 40
0
 40
1
 40
1
 40
1
 40
1
 10
133.577562
 20
250.397038
 30
0.0
 10
133.904617
 20
250.055284
 30
0.0
 10
134.312517
 20
249.884407
 30
0.0
 10
134.801263
 20
249.884407
 30
0.0
  0
SPLINE
  5
201
100
AcDbEntity
  8
Layer_1
 62
7
100
AcDbSpline
 70
8
 71
3
 72
8
 73
4
 74
0
 40
0
 40
0
 40
0
 40
0
 40
1
 40
1
 40
1
 40
1
 10
134.801263
 20
249.884407
 30
0.0
 10
135.165065
 20
249.884407
 30
0.0
 10
135.475582
 20
249.979951
 30
0.0
 10
135.732816
 20
250.171038
 30
0.0
  0
SPLINE
  5
202
100
AcDbEntity
  8
Layer_1
 62
7
100
AcDbSpline
 70
8
 71
3
 72
8
 73
4
 74
0
 40
0
 40
0
 40
0
 40
0
 40
1
 40
1
 40
1
 40
1
 10
135.732816
 20
250.171038
 30
0.0
 10
135.990051
 20
250.362128
 30
0.0
 10
136.194001
 20
250.667134
 30
0.0
 10
136.344667
 20
251.086058
 30
0.0
  0
LWPOLYLINE
  5
203
100
AcDbEntity
  8
Layer_1
 62
7
100
AcDbPolyline
 90
2
 70
0
 10
137.397489
 20
251.874296
 30
0.0
 10
133.031859
 20
251.874296
 30
0.0
  0
LWPOLYLINE
  5
204
100
AcDbEntity
  8
Layer_1
 62
7
100
AcDbPolyline
 90
1
 70
1
 10
136.344667
 20
251.086058
 30
0.0
  0
SPLINE
  5
205
100
AcDbEntity
  8
Layer_1
 62
7
100
AcDbSpline
 70
8
 71
3
 72
8
 73
4
 74
0
 40
0
 40
0
 40
0
 40
0
 40
1
 40
1
 40
1
 40
1
 10
136.355682
 20
252.690094
 30
0.0
 10
136.311585
 20
253.182514
 30
0.0
 10
136.186642
 20
253.551829
 30
0.0
 10
135.980854
 20
253.798039
 30
0.0
  0
SPLINE
  5
206
100
AcDbEntity
  8
Layer_1
 62
7
100
AcDbSpline
 70
8
 71
3
 72
8
 73
4
 74
0
 40
0
 40
0
 40
0
 40
0
 40
1
 40
1
 40
1
 40
1
 10
135.980854
 20
253.798039
 30
0.0
 10
135.664826
 20
254.180214
 30
0.0
 10
135.255089
 20
254.371301
 30
0.0
 10
134.751645
 20
254.371301
 30
0.0
  0
SPLINE
  5
207
100
AcDbEntity
  8
Layer_1
 62
7
100
AcDbSpline
 70
8
 71
3
 72
8
 73
4
 74
0
 40
0
 40
0
 40
0
 40
0
 40
1
 40
1
 40
1
 40
1
 10
134.751645
 20
254.371301
 30
0.0
 10
134.295973
 20
254.371301
 30
0.0
 10
133.911959
 20
254.218799
 30
0.0
 10
133.599605
 20
253.913794
 30
0.0
  0
SPLINE
  5
208
100
AcDbEntity
  8
Layer_1
 62
7
100
AcDbSpline
 70
8
 71
3
 72
8
 73
4
 74
0
 40
0
 40
0
 40
0
 40
0
 40
1
 40
1
 40
1
 40
1
 10
133.599605
 20
253.913794
 30
0.0
 10
133.290924
 20
253.608788
 30
0.0
 10
133.120047
 20
253.200888
 30
0.0
 10
133.086974
 20
252.690094
 30
0.0
  0
LWPOLYLINE
  5
209
100
AcDbEntity
  8
Layer_1
 62
7
100
AcDbPolyline
 90
2
 70
0
 10
133.086974
 20
252.690094
 30
0.0
 10
136.355682
 20
252.690094
 30
0.0
  0
LWPOLYLINE
  5
20a
100
AcDbEntity
  8
Layer_1
 62
7
100
AcDbPolyline
 90
1
 70
1
 10
133.086974
 20
252.690094
 30
0.0
  0
SPLINE
  5
20b
100
AcDbEntity
  8
Layer_1
 62
7
100
AcDbSpline
 70
8
 71
3
 72
8
 73
4
 74
0
 40
0
 40
0
 40
0
 40
0
 40
1
 40
1
 40
1
 40
1
 10
139.497611
 20
254.167353
 30
0.0
 10
139.725448
 20
254.582602
 30
0.0
 10
139.934910
 20
254.856373
 30
0.0
 10
140.125999
 20
254.988664
 30
0.0
  0
SPLINE
  5
20c
100
AcDbEntity
  8
Layer_1
 62
7
100
AcDbSpline
 70
8
 71
3
 72
8
 73
4
 74
0
 40
0
 40
0
 40
0
 40
0
 40
1
 40
1
 40
1
 40
1
 10
140.125999
 20
254.988664
 30
0.0
 10
140.320761
 20
255.120956
 30
0.0
 10
140.533897
 20
255.187102
 30
0.0
 10
140.765407
 20
255.187102
 30
0.0
  0
SPLINE
  5
20d
100
AcDbEntity
  8
Layer_1
 62
7
100
AcDbSpline
 70
8
 71
3
 72
8
 73
4
 74
0
 40
0
 40
0
 40
0
 40
0
 40
1
 40
1
 40
1
 40
1
 10
140.765407
 20
255.187102
 30
0.0
 10
141.099813
 20
255.187102
 30
0.0
 10
141.439729
 20
255.080534
 30
0.0
 10
141.785157
 20
254.867398
 30
0.0
  0
LWPOLYLINE
  5
20e
100
AcDbEntity
  8
Layer_1
 62
7
100
AcDbPolyline
 90
4
 70
0
 10
138.604643
 20
249.200899
 30
0.0
 10
138.604643
 20
255.054810
 30
0.0
 10
139.497611
 20
255.054810
 30
0.0
 10
139.497611
 20
254.167353
 30
0.0
  0
SPLINE
  5
20f
100
AcDbEntity
  8
Layer_1
 62
7
100
AcDbSpline
 70
8
 71
3
 72
8
 73
4
 74
0
 40
0
 40
0
 40
0
 40
0
 40
1
 40
1
 40
1
 40
1
 10
141.443405
 20
253.946867
 30
0.0
 10
141.200870
 20
254.090183
 30
0.0
 10
140.958335
 20
254.161841
 30
0.0
 10
140.715798
 20
254.161841
 30
0.0
  0
SPLINE
  5
210
100
AcDbEntity
  8
Layer_1
 62
7
100
AcDbSpline
 70
8
 71
3
 72
8
 73
4
 74
0
 40
0
 40
0
 40
0
 40
0
 40
1
 40
1
 40
1
 40
1
 10
140.715798
 20
254.161841
 30
0.0
 10
140.498988
 20
254.161841
 30
0.0
 10
140.304225
 20
254.095696
 30
0.0
 10
140.131511
 20
253.963404
 30
0.0
  0
SPLINE
  5
211
100
AcDbEntity
  8
Layer_1
 62
7
100
AcDbSpline
 70
8
 71
3
 72
8
 73
4
 74
0
 40
0
 40
0
 40
0
 40
0
 40
1
 40
1
 40
1
 40
1
 10
140.131511
 20
253.963404
 30
0.0
 10
139.958796
 20
253.834786
 30
0.0
 10
139.835691
 20
253.654722
 30
0.0
 10
139.762195
 20
253.423212
 30
0.0
  0
SPLINE
  5
212
100
AcDbEntity
  8
Layer_1
 62
7
100
AcDbSpline
 70
8
 71
3
 72
8
 73
4
 74
0
 40
0
 40
0
 40
0
 40
0
 40
1
 40
1
 40
1
 40
1
 10
139.762195
 20
253.423212
 30
0.0
 10
139.651952
 20
253.070434
 30
0.0
 10
139.596830
 20
252.684583
 30
0.0
 10
139.596830
 20
252.265657
 30
0.0
  0
LWPOLYLINE
  5
213
100
AcDbEntity
  8
Layer_1
 62
7
100
AcDbPolyline
 90
2
 70
0
 10
141.785157
 20
254.867398
 30
0.0
 10
141.443405
 20
253.946867
 30
0.0
  0
LWPOLYLINE
  5
214
100
AcDbEntity
  8
Layer_1
 62
7
100
AcDbPolyline
 90
3
 70
0
 10
139.596830
 20
252.265657
 30
0.0
 10
139.596830
 20
249.200899
 30
0.0
 10
138.604643
 20
249.200899
 30
0.0
  0
SPLINE
  5
215
100
AcDbEntity
  8
Layer_1
 62
7
100
AcDbSpline
 70
8
 71
3
 72
8
 73
4
 74
0
 40
0
 40
0
 40
0
 40
0
 40
1
 40
1
 40
1
 40
1
 10
143.256904
 20
254.167353
 30
0.0
 10
143.484740
 20
254.582602
 30
0.0
 10
143.694202
 20
254.856373
 30
0.0
 10
143.885289
 20
254.988664
 30
0.0
  0
SPLINE
  5
216
100
AcDbEntity
  8
Layer_1
 62
7
100
AcDbSpline
 70
8
 71
3
 72
8
 73
4
 74
0
 40
0
 40
0
 40
0
 40
0
 40
1
 40
1
 40
1
 40
1
 10
143.885289
 20
254.988664
 30
0.0
 10
144.080053
 20
255.120956
 30
0.0
 10
144.293190
 20
255.187102
 30
0.0
 10
144.524700
 20
255.187102
 30
0.0
  0
SPLINE
  5
217
100
AcDbEntity
  8
Layer_1
 62
7
100
AcDbSpline
 70
8
 71
3
 72
8
 73
4
 74
0
 40
0
 40
0
 40
0
 40
0
 40
1
 40
1
 40
1
 40
1
 10
144.524700
 20
255.187102
 30
0.0
 10
144.859103
 20
255.187102
 30
0.0
 10
145.199020
 20
255.080534
 30
0.0
 10
145.544449
 20
254.867398
 30
0.0
  0
LWPOLYLINE
  5
218
100
AcDbEntity
  8
Layer_1
 62
7
100
AcDbPolyline
 90
4
 70
0
 10
142.363935
 20
249.200899
 30
0.0
 10
142.363935
 20
255.054810
 30
0.0
 10
143.256904
 20
255.054810
 30
0.0
 10
143.256904
 20
254.167353
 30
0.0
  0
SPLINE
  5
219
100
AcDbEntity
  8
Layer_1
 62
7
100
AcDbSpline
 70
8
 71
3
 72
8
 73
4
 74
0
 40
0
 40
0
 40
0
 40
0
 40
1
 40
1
 40
1
 40
1
 10
145.202695
 20
253.946867
 30
0.0
 10
144.960160
 20
254.090183
 30
0.0
 10
144.717625
 20
254.161841
 30
0.0
 10
144.475091
 20
254.161841
 30
0.0
  0
SPLINE
  5
21a
100
AcDbEntity
  8
Layer_1
 62
7
100
AcDbSpline
 70
8
 71
3
 72
8
 73
4
 74
0
 40
0
 40
0
 40
0
 40
0
 40
1
 40
1
 40
1
 40
1
 10
144.475091
 20
254.161841
 30
0.0
 10
144.258279
 20
254.161841
 30
0.0
 10
144.063515
 20
254.095696
 30
0.0
 10
143.890801
 20
253.963404
 30
0.0
  0
SPLINE
  5
21b
100
AcDbEntity
  8
Layer_1
 62
7
100
AcDbSpline
 70
8
 71
3
 72
8
 73
4
 74
0
 40
0
 40
0
 40
0
 40
0
 40
1
 40
1
 40
1
 40
1
 10
143.890801
 20
253.963404
 30
0.0
 10
143.718088
 20
253.834786
 30
0.0
 10
143.594983
 20
253.654722
 30
0.0
 10
143.521487
 20
253.423212
 30
0.0
  0
SPLINE
  5
21c
100
AcDbEntity
  8
Layer_1
 62
7
100
AcDbSpline
 70
8
 71
3
 72
8
 73
4
 74
0
 40
0
 40
0
 40
0
 40
0
 40
1
 40
1
 40
1
 40
1
 10
143.521487
 20
253.423212
 30
0.0
 10
143.411244
 20
253.070434
 30
0.0
 10
143.356123
 20
252.684583
 30
0.0
 10
143.356123
 20
252.265657
 30
0.0
  0
LWPOLYLINE
  5
21d
100
AcDbEntity
  8
Layer_1
 62
7
100
AcDbPolyline
 90
2
 70
0
 10
145.544449
 20
254.867398
 30
0.0
 10
145.202695
 20
253.946867
 30
0.0
  0
LWPOLYLINE
  5
21e
100
AcDbEntity
  8
Layer_1
 62
7
100
AcDbPolyline
 90
3
 70
0
 10
143.356123
 20
252.265657
 30
0.0
 10
143.356123
 20
249.200899
 30
0.0
 10
142.363935
 20
249.200899
 30
0.0
  0
LWPOLYLINE
  5
21f
100
AcDbEntity
  8
Layer_1
 62
7
100
AcDbPolyline
 90
4
 70
1
 10
146.139762
 20
256.140705
 30
0.0
 10
146.139762
 20
257.281721
 30
0.0
 10
147.131949
 20
257.281721
 30
0.0
 10
147.131949
 20
256.140705
 30
0.0
  0
LWPOLYLINE
  5
220
100
AcDbEntity
  8
Layer_1
 62
7
100
AcDbPolyline
 90
4
 70
1
 10
146.139762
 20
249.200899
 30
0.0
 10
146.139762
 20
255.054810
 30
0.0
 10
147.131949
 20
255.054810
 30
0.0
 10
147.131949
 20
249.200899
 30
0.0
  0
SPLINE
  5
221
100
AcDbEntity
  8
Layer_1
 62
7
100
AcDbSpline
 70
8
 71
3
 72
8
 73
4
 74
0
 40
0
 40
0
 40
0
 40
0
 40
1
 40
1
 40
1
 40
1
 10
153.674883
 20
250.959277
 30
0.0
 10
153.513193
 20
250.360290
 30
0.0
 10
153.213699
 20
249.895432
 30
0.0
 10
152.776401
 20
249.564701
 30
0.0
  0
SPLINE
  5
222
100
AcDbEntity
  8
Layer_1
 62
7
100
AcDbSpline
 70
8
 71
3
 72
8
 73
4
 74
0
 40
0
 40
0
 40
0
 40
0
 40
1
 40
1
 40
1
 40
1
 10
152.776401
 20
249.564701
 30
0.0
 10
152.339104
 20
249.233972
 30
0.0
 10
151.780540
 20
249.068607
 30
0.0
 10
151.100707
 20
249.068607
 30
0.0
  0
SPLINE
  5
223
100
AcDbEntity
  8
Layer_1
 62
7
100
AcDbSpline
 70
8
 71
3
 72
8
 73
4
 74
0
 40
0
 40
0
 40
0
 40
0
 40
1
 40
1
 40
1
 40
1
 10
151.100707
 20
249.068607
 30
0.0
 10
150.244485
 20
249.068607
 30
0.0
 10
149.564653
 20
249.331353
 30
0.0
 10
149.061209
 20
249.856846
 30
0.0
  0
SPLINE
  5
224
100
AcDbEntity
  8
Layer_1
 62
7
100
AcDbSpline
 70
8
 71
3
 72
8
 73
4
 74
0
 40
0
 40
0
 40
0
 40
0
 40
1
 40
1
 40
1
 40
1
 10
149.061209
 20
249.856846
 30
0.0
 10
148.561439
 20
250.386012
 30
0.0
 10
148.311554
 20
251.126479
 30
0.0
 10
148.311554
 20
252.078245
 30
0.0
  0
SPLINE
  5
225
100
AcDbEntity
  8
Layer_1
 62
7
100
AcDbSpline
 70
8
 71
3
 72
8
 73
4
 74
0
 40
0
 40
0
 40
0
 40
0
 40
1
 40
1
 40
1
 40
1
 10
148.311554
 20
252.078245
 30
0.0
 10
148.311554
 20
253.063084
 30
0.0
 10
148.565113
 20
253.827436
 30
0.0
 10
149.072231
 20
254.371301
 30
0.0
  0
SPLINE
  5
226
100
AcDbEntity
  8
Layer_1
 62
7
100
AcDbSpline
 70
8
 71
3
 72
8
 73
4
 74
0
 40
0
 40
0
 40
0
 40
0
 40
1
 40
1
 40
1
 40
1
 10
149.072231
 20
254.371301
 30
0.0
 10
149.579351
 20
254.915168
 30
0.0
 10
150.237135
 20
255.187102
 30
0.0
 10
151.045584
 20
255.187102
 30
0.0
  0
SPLINE
  5
227
100
AcDbEntity
  8
Layer_1
 62
7
100
AcDbSpline
 70
8
 71
3
 72
8
 73
4
 74
0
 40
0
 40
0
 40
0
 40
0
 40
1
 40
1
 40
1
 40
1
 10
151.045584
 20
255.187102
 30
0.0
 10
151.828311
 20
255.187102
 30
0.0
 10
152.467722
 20
254.920680
 30
0.0
 10
152.963815
 20
254.387838
 30
0.0
  0
SPLINE
  5
228
100
AcDbEntity
  8
Layer_1
 62
7
100
AcDbSpline
 70
8
 71
3
 72
8
 73
4
 74
0
 40
0
 40
0
 40
0
 40
0
 40
1
 40
1
 40
1
 40
1
 10
152.963815
 20
254.387838
 30
0.0
 10
153.459909
 20
253.854997
 30
0.0
 10
153.707956
 20
253.105344
 30
0.0
 10
153.707956
 20
252.138880
 30
0.0
  0
SPLINE
  5
229
100
AcDbEntity
  8
Layer_1
 62
7
100
AcDbSpline
 70
8
 71
3
 72
8
 73
4
 74
0
 40
0
 40
0
 40
0
 40
0
 40
1
 40
1
 40
1
 40
1
 10
153.707956
 20
252.138880
 30
0.0
 10
153.707956
 20
252.080082
 30
0.0
 10
153.706122
 20
251.991888
 30
0.0
 10
153.702453
 20
251.874296
 30
0.0
  0
LWPOLYLINE
  5
22a
100
AcDbEntity
  8
Layer_1
 62
7
100
AcDbPolyline
 90
2
 70
0
 10
152.649623
 20
251.086058
 30
0.0
 10
153.674883
 20
250.959277
 30
0.0
  0
SPLINE
  5
22b
100
AcDbEntity
  8
Layer_1
 62
7
100
AcDbSpline
 70
8
 71
3
 72
8
 73
4
 74
0
 40
0
 40
0
 40
0
 40
0
 40
1
 40
1
 40
1
 40
1
 10
149.336823
 20
251.874296
 30
0.0
 10
149.373571
 20
251.231211
 30
0.0
 10
149.555473
 20
250.738791
 30
0.0
 10
149.882528
 20
250.397038
 30
0.0
  0
SPLINE
  5
22c
100
AcDbEntity
  8
Layer_1
 62
7
100
AcDbSpline
 70
8
 71
3
 72
8
 73
4
 74
0
 40
0
 40
0
 40
0
 40
0
 40
1
 40
1
 40
1
 40
1
 10
149.882528
 20
250.397038
 30
0.0
 10
150.209582
 20
250.055284
 30
0.0
 10
150.617481
 20
249.884407
 30
0.0
 10
151.106226
 20
249.884407
 30
0.0
  0
SPLINE
  5
22d
100
AcDbEntity
  8
Layer_1
 62
7
100
AcDbSpline
 70
8
 71
3
 72
8
 73
4
 74
0
 40
0
 40
0
 40
0
 40
0
 40
1
 40
1
 40
1
 40
1
 10
151.106226
 20
249.884407
 30
0.0
 10
151.470028
 20
249.884407
 30
0.0
 10
151.780547
 20
249.979951
 30
0.0
 10
152.037782
 20
250.171038
 30
0.0
  0
SPLINE
  5
22e
100
AcDbEntity
  8
Layer_1
 62
7
100
AcDbSpline
 70
8
 71
3
 72
8
 73
4
 74
0
 40
0
 40
0
 40
0
 40
0
 40
1
 40
1
 40
1
 40
1
 10
152.037782
 20
250.171038
 30
0.0
 10
152.295015
 20
250.362128
 30
0.0
 10
152.498965
 20
250.667134
 30
0.0
 10
152.649631
 20
251.086058
 30
0.0
  0
LWPOLYLINE
  5
22f
100
AcDbEntity
  8
Layer_1
 62
7
100
AcDbPolyline
 90
2
 70
0
 10
153.702453
 20
251.874296
 30
0.0
 10
149.336823
 20
251.874296
 30
0.0
  0
LWPOLYLINE
  5
230
100
AcDbEntity
  8
Layer_1
 62
7
100
AcDbPolyline
 90
1
 70
1
 10
152.649631
 20
251.086058
 30
0.0
  0
SPLINE
  5
231
100
AcDbEntity
  8
Layer_1
 62
7
100
AcDbSpline
 70
8
 71
3
 72
8
 73
4
 74
0
 40
0
 40
0
 40
0
 40
0
 40
1
 40
1
 40
1
 40
1
 10
152.660645
 20
252.690094
 30
0.0
 10
152.616548
 20
253.182514
 30
0.0
 10
152.491607
 20
253.551829
 30
0.0
 10
152.285821
 20
253.798039
 30
0.0
  0
SPLINE
  5
232
100
AcDbEntity
  8
Layer_1
 62
7
100
AcDbSpline
 70
8
 71
3
 72
8
 73
4
 74
0
 40
0
 40
0
 40
0
 40
0
 40
1
 40
1
 40
1
 40
1
 10
152.285821
 20
253.798039
 30
0.0
 10
151.969790
 20
254.180214
 30
0.0
 10
151.560053
 20
254.371301
 30
0.0
 10
151.056609
 20
254.371301
 30
0.0
  0
SPLINE
  5
233
100
AcDbEntity
  8
Layer_1
 62
7
100
AcDbSpline
 70
8
 71
3
 72
8
 73
4
 74
0
 40
0
 40
0
 40
0
 40
0
 40
1
 40
1
 40
1
 40
1
 10
151.056609
 20
254.371301
 30
0.0
 10
150.600936
 20
254.371301
 30
0.0
 10
150.216923
 20
254.218799
 30
0.0
 10
149.904568
 20
253.913794
 30
0.0
  0
SPLINE
  5
234
100
AcDbEntity
  8
Layer_1
 62
7
100
AcDbSpline
 70
8
 71
3
 72
8
 73
4
 74
0
 40
0
 40
0
 40
0
 40
0
 40
1
 40
1
 40
1
 40
1
 10
149.904568
 20
253.913794
 30
0.0
 10
149.595888
 20
253.608788
 30
0.0
 10
149.425011
 20
253.200888
 30
0.0
 10
149.391938
 20
252.690094
 30
0.0
  0
LWPOLYLINE
  5
235
100
AcDbEntity
  8
Layer_1
 62
7
100
AcDbPolyline
 90
2
 70
0
 10
149.391938
 20
252.690094
 30
0.0
 10
152.660645
 20
252.690094
 30
0.0
  0
LWPOLYLINE
  5
236
100
AcDbEntity
  8
Layer_1
 62
7
100
AcDbPolyline
 90
1
 70
1
 10
149.391938
 20
252.690094
 30
0.0
  0
SPLINE
  5
237
100
AcDbEntity
  8
Layer_1
 62
7
100
AcDbSpline
 70
8
 71
3
 72
8
 73
4
 74
0
 40
0
 40
0
 40
0
 40
0
 40
1
 40
1
 40
1
 40
1
 10
155.504919
 20
251.102594
 30
0.0
 10
155.560040
 20
250.709393
 30
0.0
 10
155.712543
 20
250.408062
 30
0.0
 10
155.962428
 20
250.198600
 30
0.0
  0
SPLINE
  5
238
100
AcDbEntity
  8
Layer_1
 62
7
100
AcDbSpline
 70
8
 71
3
 72
8
 73
4
 74
0
 40
0
 40
0
 40
0
 40
0
 40
1
 40
1
 40
1
 40
1
 10
155.962428
 20
250.198600
 30
0.0
 10
156.215987
 20
249.989138
 30
0.0
 10
156.568766
 20
249.884407
 30
0.0
 10
157.020764
 20
249.884407
 30
0.0
  0
SPLINE
  5
239
100
AcDbEntity
  8
Layer_1
 62
7
100
AcDbSpline
 70
8
 71
3
 72
8
 73
4
 74
0
 40
0
 40
0
 40
0
 40
0
 40
1
 40
1
 40
1
 40
1
 10
157.020764
 20
249.884407
 30
0.0
 10
157.476435
 20
249.884407
 30
0.0
 10
157.814513
 20
249.976277
 30
0.0
 10
158.035000
 20
250.160016
 30
0.0
  0
SPLINE
  5
23a
100
AcDbEntity
  8
Layer_1
 62
7
100
AcDbSpline
 70
8
 71
3
 72
8
 73
4
 74
0
 40
0
 40
0
 40
0
 40
0
 40
1
 40
1
 40
1
 40
1
 10
158.035000
 20
250.160016
 30
0.0
 10
158.255486
 20
250.347429
 30
0.0
 10
158.365729
 20
250.566077
 30
0.0
 10
158.365729
 20
250.815960
 30
0.0
  0
SPLINE
  5
23b
100
AcDbEntity
  8
Layer_1
 62
7
100
AcDbSpline
 70
8
 71
3
 72
8
 73
4
 74
0
 40
0
 40
0
 40
0
 40
0
 40
1
 40
1
 40
1
 40
1
 10
158.365729
 20
250.815960
 30
0.0
 10
158.365729
 20
251.040122
 30
0.0
 10
158.268347
 20
251.216512
 30
0.0
 10
158.073584
 20
251.345130
 30
0.0
  0
SPLINE
  5
23c
100
AcDbEntity
  8
Layer_1
 62
7
100
AcDbSpline
 70
8
 71
3
 72
8
 73
4
 74
0
 40
0
 40
0
 40
0
 40
0
 40
1
 40
1
 40
1
 40
1
 10
158.073584
 20
251.345130
 30
0.0
 10
157.937618
 20
251.433324
 30
0.0
 10
157.599539
 20
251.545404
 30
0.0
 10
157.059348
 20
251.681370
 30
0.0
  0
SPLINE
  5
23d
100
AcDbEntity
  8
Layer_1
 62
7
100
AcDbSpline
 70
8
 71
3
 72
8
 73
4
 74
0
 40
0
 40
0
 40
0
 40
0
 40
1
 40
1
 40
1
 40
1
 10
157.059348
 20
251.681370
 30
0.0
 10
156.331744
 20
251.865109
 30
0.0
 10
155.826463
 20
252.023124
 30
0.0
 10
155.543506
 20
252.155416
 30
0.0
  0
SPLINE
  5
23e
100
AcDbEntity
  8
Layer_1
 62
7
100
AcDbSpline
 70
8
 71
3
 72
8
 73
4
 74
0
 40
0
 40
0
 40
0
 40
0
 40
1
 40
1
 40
1
 40
1
 10
155.543506
 20
252.155416
 30
0.0
 10
155.264222
 20
252.291382
 30
0.0
 10
155.051085
 20
252.476958
 30
0.0
 10
154.904095
 20
252.712144
 30
0.0
  0
SPLINE
  5
23f
100
AcDbEntity
  8
Layer_1
 62
7
100
AcDbSpline
 70
8
 71
3
 72
8
 73
4
 74
0
 40
0
 40
0
 40
0
 40
0
 40
1
 40
1
 40
1
 40
1
 10
154.904095
 20
252.712144
 30
0.0
 10
154.760779
 20
252.951003
 30
0.0
 10
154.689121
 20
253.213748
 30
0.0
 10
154.689121
 20
253.500380
 30
0.0
  0
SPLINE
  5
240
100
AcDbEntity
  8
Layer_1
 62
7
100
AcDbSpline
 70
8
 71
3
 72
8
 73
4
 74
0
 40
0
 40
0
 40
0
 40
0
 40
1
 40
1
 40
1
 40
1
 10
154.689121
 20
253.500380
 30
0.0
 10
154.689121
 20
253.761290
 30
0.0
 10
154.747918
 20
254.001987
 30
0.0
 10
154.865511
 20
254.222473
 30
0.0
  0
SPLINE
  5
241
100
AcDbEntity
  8
Layer_1
 62
7
100
AcDbSpline
 70
8
 71
3
 72
8
 73
4
 74
0
 40
0
 40
0
 40
0
 40
0
 40
1
 40
1
 40
1
 40
1
 10
154.865511
 20
254.222473
 30
0.0
 10
154.986778
 20
254.446635
 30
0.0
 10
155.150305
 20
254.632211
 30
0.0
 10
155.356091
 20
254.779202
 30
0.0
  0
SPLINE
  5
242
100
AcDbEntity
  8
Layer_1
 62
7
100
AcDbSpline
 70
8
 71
3
 72
8
 73
4
 74
0
 40
0
 40
0
 40
0
 40
0
 40
1
 40
1
 40
1
 40
1
 10
155.356091
 20
254.779202
 30
0.0
 10
155.510431
 20
254.893121
 30
0.0
 10
155.719894
 20
254.988665
 30
0.0
 10
155.984479
 20
255.065835
 30
0.0
  0
SPLINE
  5
243
100
AcDbEntity
  8
Layer_1
 62
7
100
AcDbSpline
 70
8
 71
3
 72
8
 73
4
 74
0
 40
0
 40
0
 40
0
 40
0
 40
1
 40
1
 40
1
 40
1
 10
155.984479
 20
255.065835
 30
0.0
 10
156.252736
 20
255.146680
 30
0.0
 10
156.539368
 20
255.187102
 30
0.0
 10
156.844375
 20
255.187102
 30
0.0
  0
SPLINE
  5
244
100
AcDbEntity
  8
Layer_1
 62
7
100
AcDbSpline
 70
8
 71
3
 72
8
 73
4
 74
0
 40
0
 40
0
 40
0
 40
0
 40
1
 40
1
 40
1
 40
1
 10
156.844375
 20
255.187102
 30
0.0
 10
157.303721
 20
255.187102
 30
0.0
 10
157.706108
 20
255.120956
 30
0.0
 10
158.051536
 20
254.988664
 30
0.0
  0
SPLINE
  5
245
100
AcDbEntity
  8
Layer_1
 62
7
100
AcDbSpline
 70
8
 71
3
 72
8
 73
4
 74
0
 40
0
 40
0
 40
0
 40
0
 40
1
 40
1
 40
1
 40
1
 10
158.051536
 20
254.988664
 30
0.0
 10
158.400640
 20
254.856373
 30
0.0
 10
158.657874
 20
254.676309
 30
0.0
 10
158.823238
 20
254.448472
 30
0.0
  0
SPLINE
  5
246
100
AcDbEntity
  8
Layer_1
 62
7
100
AcDbSpline
 70
8
 71
3
 72
8
 73
4
 74
0
 40
0
 40
0
 40
0
 40
0
 40
1
 40
1
 40
1
 40
1
 10
158.823238
 20
254.448472
 30
0.0
 10
158.988603
 20
254.224312
 30
0.0
 10
159.102521
 20
253.922981
 30
0.0
 10
159.164993
 20
253.544478
 30
0.0
  0
LWPOLYLINE
  5
247
100
AcDbEntity
  8
Layer_1
 62
7
100
AcDbPolyline
 90
2
 70
0
 10
154.523756
 20
250.948252
 30
0.0
 10
155.504919
 20
251.102594
 30
0.0
  0
SPLINE
  5
248
100
AcDbEntity
  8
Layer_1
 62
7
100
AcDbSpline
 70
8
 71
3
 72
8
 73
4
 74
0
 40
0
 40
0
 40
0
 40
0
 40
1
 40
1
 40
1
 40
1
 10
158.194853
 20
253.412187
 30
0.0
 10
158.150756
 20
253.713519
 30
0.0
 10
158.022138
 20
253.948704
 30
0.0
 10
157.809000
 20
254.117743
 30
0.0
  0
SPLINE
  5
249
100
AcDbEntity
  8
Layer_1
 62
7
100
AcDbSpline
 70
8
 71
3
 72
8
 73
4
 74
0
 40
0
 40
0
 40
0
 40
0
 40
1
 40
1
 40
1
 40
1
 10
157.809000
 20
254.117743
 30
0.0
 10
157.599539
 20
254.286782
 30
0.0
 10
157.301882
 20
254.371301
 30
0.0
 10
156.916032
 20
254.371301
 30
0.0
  0
SPLINE
  5
24a
100
AcDbEntity
  8
Layer_1
 62
7
100
AcDbSpline
 70
8
 71
3
 72
8
 73
4
 74
0
 40
0
 40
0
 40
0
 40
0
 40
1
 40
1
 40
1
 40
1
 10
156.916032
 20
254.371301
 30
0.0
 10
156.460361
 20
254.371301
 30
0.0
 10
156.135144
 20
254.295969
 30
0.0
 10
155.940381
 20
254.145305
 30
0.0
  0
SPLINE
  5
24b
100
AcDbEntity
  8
Layer_1
 62
7
100
AcDbSpline
 70
8
 71
3
 72
8
 73
4
 74
0
 40
0
 40
0
 40
0
 40
0
 40
1
 40
1
 40
1
 40
1
 10
155.940381
 20
254.145305
 30
0.0
 10
155.745617
 20
253.994639
 30
0.0
 10
155.648236
 20
253.818250
 30
0.0
 10
155.648236
 20
253.616138
 30
0.0
  0
SPLINE
  5
24c
100
AcDbEntity
  8
Layer_1
 62
7
100
AcDbSpline
 70
8
 71
3
 72
8
 73
4
 74
0
 40
0
 40
0
 40
0
 40
0
 40
1
 40
1
 40
1
 40
1
 10
155.648236
 20
253.616138
 30
0.0
 10
155.648236
 20
253.487521
 30
0.0
 10
155.688658
 20
253.371765
 30
0.0
 10
155.769502
 20
253.268870
 30
0.0
  0
SPLINE
  5
24d
100
AcDbEntity
  8
Layer_1
 62
7
100
AcDbSpline
 70
8
 71
3
 72
8
 73
4
 74
0
 40
0
 40
0
 40
0
 40
0
 40
1
 40
1
 40
1
 40
1
 10
155.769502
 20
253.268870
 30
0.0
 10
155.850348
 20
253.162303
 30
0.0
 10
155.977129
 20
253.074108
 30
0.0
 10
156.149843
 20
253.004287
 30
0.0
  0
SPLINE
  5
24e
100
AcDbEntity
  8
Layer_1
 62
7
100
AcDbSpline
 70
8
 71
3
 72
8
 73
4
 74
0
 40
0
 40
0
 40
0
 40
0
 40
1
 40
1
 40
1
 40
1
 10
156.149843
 20
253.004287
 30
0.0
 10
156.249062
 20
252.967540
 30
0.0
 10
156.541206
 20
252.883020
 30
0.0
 10
157.026276
 20
252.750729
 30
0.0
  0
SPLINE
  5
24f
100
AcDbEntity
  8
Layer_1
 62
7
100
AcDbSpline
 70
8
 71
3
 72
8
 73
4
 74
0
 40
0
 40
0
 40
0
 40
0
 40
1
 40
1
 40
1
 40
1
 10
157.026276
 20
252.750729
 30
0.0
 10
157.728157
 20
252.563315
 30
0.0
 10
158.216901
 20
252.408975
 30
0.0
 10
158.492509
 20
252.287708
 30
0.0
  0
SPLINE
  5
250
100
AcDbEntity
  8
Layer_1
 62
7
100
AcDbSpline
 70
8
 71
3
 72
8
 73
4
 74
0
 40
0
 40
0
 40
0
 40
0
 40
1
 40
1
 40
1
 40
1
 10
158.492509
 20
252.287708
 30
0.0
 10
158.771791
 20
252.170114
 30
0.0
 10
158.990440
 20
251.997400
 30
0.0
 10
159.148456
 20
251.769564
 30
0.0
  0
SPLINE
  5
251
100
AcDbEntity
  8
Layer_1
 62
7
100
AcDbSpline
 70
8
 71
3
 72
8
 73
4
 74
0
 40
0
 40
0
 40
0
 40
0
 40
1
 40
1
 40
1
 40
1
 10
159.148456
 20
251.769564
 30
0.0
 10
159.306471
 20
251.541729
 30
0.0
 10
159.385478
 20
251.258772
 30
0.0
 10
159.385478
 20
250.920693
 30
0.0
  0
SPLINE
  5
252
100
AcDbEntity
  8
Layer_1
 62
7
100
AcDbSpline
 70
8
 71
3
 72
8
 73
4
 74
0
 40
0
 40
0
 40
0
 40
0
 40
1
 40
1
 40
1
 40
1
 10
159.385478
 20
250.920693
 30
0.0
 10
159.385478
 20
250.589964
 30
0.0
 10
159.288096
 20
250.277608
 30
0.0
 10
159.093333
 20
249.983626
 30
0.0
  0
SPLINE
  5
253
100
AcDbEntity
  8
Layer_1
 62
7
100
AcDbSpline
 70
8
 71
3
 72
8
 73
4
 74
0
 40
0
 40
0
 40
0
 40
0
 40
1
 40
1
 40
1
 40
1
 10
159.093333
 20
249.983626
 30
0.0
 10
158.902245
 20
249.693318
 30
0.0
 10
158.624801
 20
249.467320
 30
0.0
 10
158.260999
 20
249.305631
 30
0.0
  0
SPLINE
  5
254
100
AcDbEntity
  8
Layer_1
 62
7
100
AcDbSpline
 70
8
 71
3
 72
8
 73
4
 74
0
 40
0
 40
0
 40
0
 40
0
 40
1
 40
1
 40
1
 40
1
 10
158.260999
 20
249.305631
 30
0.0
 10
157.897197
 20
249.147615
 30
0.0
 10
157.485622
 20
249.068607
 30
0.0
 10
157.026276
 20
249.068607
 30
0.0
  0
SPLINE
  5
255
100
AcDbEntity
  8
Layer_1
 62
7
100
AcDbSpline
 70
8
 71
3
 72
8
 73
4
 74
0
 40
0
 40
0
 40
0
 40
0
 40
1
 40
1
 40
1
 40
1
 10
157.026276
 20
249.068607
 30
0.0
 10
156.265598
 20
249.068607
 30
0.0
 10
155.684984
 20
249.226622
 30
0.0
 10
155.284434
 20
249.542653
 30
0.0
  0
SPLINE
  5
256
100
AcDbEntity
  8
Layer_1
 62
7
100
AcDbSpline
 70
8
 71
3
 72
8
 73
4
 74
0
 40
0
 40
0
 40
0
 40
0
 40
1
 40
1
 40
1
 40
1
 10
155.284434
 20
249.542653
 30
0.0
 10
154.887559
 20
249.858684
 30
0.0
 10
154.634000
 20
250.327217
 30
0.0
 10
154.523756
 20
250.948252
 30
0.0
  0
LWPOLYLINE
  5
257
100
AcDbEntity
  8
Layer_1
 62
7
100
AcDbPolyline
 90
2
 70
0
 10
159.164993
 20
253.544478
 30
0.0
 10
158.194853
 20
253.412187
 30
0.0
  0
LWPOLYLINE
  5
258
100
AcDbEntity
  8
Layer_1
 62
7
100
AcDbPolyline
 90
1
 70
1
 10
154.523756
 20
250.948252
 30
0.0
  0
SPLINE
  5
259
100
AcDbEntity
  8
Layer_1
 62
7
100
AcDbSpline
 70
8
 71
3
 72
8
 73
4
 74
0
 40
0
 40
0
 40
0
 40
0
 40
1
 40
1
 40
1
 40
1
 10
60.076692
 20
236.990480
 30
0.0
 10
60.124463
 20
236.586256
 30
0.0
 10
60.234706
 20
236.253690
 30
0.0
 10
60.407421
 20
235.992781
 30
0.0
  0
SPLINE
  5
25a
100
AcDbEntity
  8
Layer_1
 62
7
100
AcDbSpline
 70
8
 71
3
 72
8
 73
4
 74
0
 40
0
 40
0
 40
0
 40
0
 40
1
 40
1
 40
1
 40
1
 10
60.407421
 20
235.992781
 30
0.0
 10
60.583810
 20
235.735546
 30
0.0
 10
60.855742
 20
235.526084
 30
0.0
 10
61.223219
 20
235.364396
 30
0.0
  0
SPLINE
  5
25b
100
AcDbEntity
  8
Layer_1
 62
7
100
AcDbSpline
 70
8
 71
3
 72
8
 73
4
 74
0
 40
0
 40
0
 40
0
 40
0
 40
1
 40
1
 40
1
 40
1
 10
61.223219
 20
235.364396
 30
0.0
 10
61.590697
 20
235.206379
 30
0.0
 10
62.004109
 20
235.127371
 30
0.0
 10
62.463456
 20
235.127371
 30
0.0
  0
SPLINE
  5
25c
100
AcDbEntity
  8
Layer_1
 62
7
100
AcDbSpline
 70
8
 71
3
 72
8
 73
4
 74
0
 40
0
 40
0
 40
0
 40
0
 40
1
 40
1
 40
1
 40
1
 10
62.463456
 20
235.127371
 30
0.0
 10
62.871355
 20
235.127371
 30
0.0
 10
63.231482
 20
235.188005
 30
0.0
 10
63.543837
 20
235.309272
 30
0.0
  0
SPLINE
  5
25d
100
AcDbEntity
  8
Layer_1
 62
7
100
AcDbSpline
 70
8
 71
3
 72
8
 73
4
 74
0
 40
0
 40
0
 40
0
 40
0
 40
1
 40
1
 40
1
 40
1
 10
63.543837
 20
235.309272
 30
0.0
 10
63.856193
 20
235.430540
 30
0.0
 10
64.087704
 20
235.595904
 30
0.0
 10
64.238368
 20
235.805366
 30
0.0
  0
SPLINE
  5
25e
100
AcDbEntity
  8
Layer_1
 62
7
100
AcDbSpline
 70
8
 71
3
 72
8
 73
4
 74
0
 40
0
 40
0
 40
0
 40
0
 40
1
 40
1
 40
1
 40
1
 10
64.238368
 20
235.805366
 30
0.0
 10
64.392708
 20
236.018504
 30
0.0
 10
64.469878
 20
236.250015
 30
0.0
 10
64.469878
 20
236.499900
 30
0.0
  0
SPLINE
  5
25f
100
AcDbEntity
  8
Layer_1
 62
7
100
AcDbSpline
 70
8
 71
3
 72
8
 73
4
 74
0
 40
0
 40
0
 40
0
 40
0
 40
1
 40
1
 40
1
 40
1
 10
64.469878
 20
236.499900
 30
0.0
 10
64.469878
 20
236.753459
 30
0.0
 10
64.396383
 20
236.973945
 30
0.0
 10
64.249393
 20
237.161358
 30
0.0
  0
SPLINE
  5
260
100
AcDbEntity
  8
Layer_1
 62
7
100
AcDbSpline
 70
8
 71
3
 72
8
 73
4
 74
0
 40
0
 40
0
 40
0
 40
0
 40
1
 40
1
 40
1
 40
1
 10
64.249393
 20
237.161358
 30
0.0
 10
64.102403
 20
237.352446
 30
0.0
 10
63.859868
 20
237.512298
 30
0.0
 10
63.521789
 20
237.640916
 30
0.0
  0
SPLINE
  5
261
100
AcDbEntity
  8
Layer_1
 62
7
100
AcDbSpline
 70
8
 71
3
 72
8
 73
4
 74
0
 40
0
 40
0
 40
0
 40
0
 40
1
 40
1
 40
1
 40
1
 10
63.521789
 20
237.640916
 30
0.0
 10
63.304977
 20
237.725436
 30
0.0
 10
62.825419
 20
237.855890
 30
0.0
 10
62.083114
 20
238.032279
 30
0.0
  0
SPLINE
  5
262
100
AcDbEntity
  8
Layer_1
 62
7
100
AcDbSpline
 70
8
 71
3
 72
8
 73
4
 74
0
 40
0
 40
0
 40
0
 40
0
 40
1
 40
1
 40
1
 40
1
 10
62.083114
 20
238.032279
 30
0.0
 10
61.340812
 20
238.212342
 30
0.0
 10
60.820832
 20
238.381381
 30
0.0
 10
60.523176
 20
238.539396
 30
0.0
  0
SPLINE
  5
263
100
AcDbEntity
  8
Layer_1
 62
7
100
AcDbSpline
 70
8
 71
3
 72
8
 73
4
 74
0
 40
0
 40
0
 40
0
 40
0
 40
1
 40
1
 40
1
 40
1
 10
60.523176
 20
238.539396
 30
0.0
 10
60.137325
 20
238.741509
 30
0.0
 10
59.848855
 20
238.991394
 30
0.0
 10
59.657766
 20
239.289050
 30
0.0
  0
SPLINE
  5
264
100
AcDbEntity
  8
Layer_1
 62
7
100
AcDbSpline
 70
8
 71
3
 72
8
 73
4
 74
0
 40
0
 40
0
 40
0
 40
0
 40
1
 40
1
 40
1
 40
1
 10
59.657766
 20
239.289050
 30
0.0
 10
59.470353
 20
239.590381
 30
0.0
 10
59.376647
 20
239.926622
 30
0.0
 10
59.376647
 20
240.297774
 30
0.0
  0
SPLINE
  5
265
100
AcDbEntity
  8
Layer_1
 62
7
100
AcDbSpline
 70
8
 71
3
 72
8
 73
4
 74
0
 40
0
 40
0
 40
0
 40
0
 40
1
 40
1
 40
1
 40
1
 10
59.376647
 20
240.297774
 30
0.0
 10
59.376647
 20
240.705673
 30
0.0
 10
59.492402
 20
241.086013
 30
0.0
 10
59.723912
 20
241.438792
 30
0.0
  0
SPLINE
  5
266
100
AcDbEntity
  8
Layer_1
 62
7
100
AcDbSpline
 70
8
 71
3
 72
8
 73
4
 74
0
 40
0
 40
0
 40
0
 40
0
 40
1
 40
1
 40
1
 40
1
 10
59.723912
 20
241.438792
 30
0.0
 10
59.955423
 20
241.795244
 30
0.0
 10
60.293502
 20
242.065340
 30
0.0
 10
60.738150
 20
242.249079
 30
0.0
  0
SPLINE
  5
267
100
AcDbEntity
  8
Layer_1
 62
7
100
AcDbSpline
 70
8
 71
3
 72
8
 73
4
 74
0
 40
0
 40
0
 40
0
 40
0
 40
1
 40
1
 40
1
 40
1
 10
60.738150
 20
242.249079
 30
0.0
 10
61.182796
 20
242.432818
 30
0.0
 10
61.677053
 20
242.524687
 30
0.0
 10
62.220920
 20
242.524687
 30
0.0
  0
SPLINE
  5
268
100
AcDbEntity
  8
Layer_1
 62
7
100
AcDbSpline
 70
8
 71
3
 72
8
 73
4
 74
0
 40
0
 40
0
 40
0
 40
0
 40
1
 40
1
 40
1
 40
1
 10
62.220920
 20
242.524687
 30
0.0
 10
62.819907
 20
242.524687
 30
0.0
 10
63.347236
 20
242.427306
 30
0.0
 10
63.802909
 20
242.232542
 30
0.0
  0
SPLINE
  5
269
100
AcDbEntity
  8
Layer_1
 62
7
100
AcDbSpline
 70
8
 71
3
 72
8
 73
4
 74
0
 40
0
 40
0
 40
0
 40
0
 40
1
 40
1
 40
1
 40
1
 10
63.802909
 20
242.232542
 30
0.0
 10
64.262255
 20
242.041453
 30
0.0
 10
64.615033
 20
241.758495
 30
0.0
 10
64.861242
 20
241.383669
 30
0.0
  0
SPLINE
  5
26a
100
AcDbEntity
  8
Layer_1
 62
7
100
AcDbSpline
 70
8
 71
3
 72
8
 73
4
 74
0
 40
0
 40
0
 40
0
 40
0
 40
1
 40
1
 40
1
 40
1
 10
64.861242
 20
241.383669
 30
0.0
 10
65.107453
 20
241.008843
 30
0.0
 10
65.239744
 20
240.584407
 30
0.0
 10
65.258117
 20
240.110362
 30
0.0
  0
LWPOLYLINE
  5
26b
100
AcDbEntity
  8
Layer_1
 62
7
100
AcDbPolyline
 90
2
 70
0
 10
59.067965
 20
236.902286
 30
0.0
 10
60.076692
 20
236.990480
 30
0.0
  0
SPLINE
  5
26c
100
AcDbEntity
  8
Layer_1
 62
7
100
AcDbSpline
 70
8
 71
3
 72
8
 73
4
 74
0
 40
0
 40
0
 40
0
 40
0
 40
1
 40
1
 40
1
 40
1
 10
64.232857
 20
240.033191
 30
0.0
 10
64.177735
 20
240.543985
 30
0.0
 10
63.990322
 20
240.929836
 30
0.0
 10
63.670617
 20
241.190745
 30
0.0
  0
SPLINE
  5
26d
100
AcDbEntity
  8
Layer_1
 62
7
100
AcDbSpline
 70
8
 71
3
 72
8
 73
4
 74
0
 40
0
 40
0
 40
0
 40
0
 40
1
 40
1
 40
1
 40
1
 10
63.670617
 20
241.190745
 30
0.0
 10
63.354586
 20
241.451653
 30
0.0
 10
62.886053
 20
241.582106
 30
0.0
 10
62.265018
 20
241.582106
 30
0.0
  0
SPLINE
  5
26e
100
AcDbEntity
  8
Layer_1
 62
7
100
AcDbSpline
 70
8
 71
3
 72
8
 73
4
 74
0
 40
0
 40
0
 40
0
 40
0
 40
1
 40
1
 40
1
 40
1
 10
62.265018
 20
241.582106
 30
0.0
 10
61.618258
 20
241.582106
 30
0.0
 10
61.146049
 20
241.462677
 30
0.0
 10
60.848391
 20
241.223818
 30
0.0
  0
SPLINE
  5
26f
100
AcDbEntity
  8
Layer_1
 62
7
100
AcDbSpline
 70
8
 71
3
 72
8
 73
4
 74
0
 40
0
 40
0
 40
0
 40
0
 40
1
 40
1
 40
1
 40
1
 10
60.848391
 20
241.223818
 30
0.0
 10
60.554411
 20
240.988632
 30
0.0
 10
60.407421
 20
240.703837
 30
0.0
 10
60.407421
 20
240.369434
 30
0.0
  0
SPLINE
  5
270
100
AcDbEntity
  8
Layer_1
 62
7
100
AcDbSpline
 70
8
 71
3
 72
8
 73
4
 74
0
 40
0
 40
0
 40
0
 40
0
 40
1
 40
1
 40
1
 40
1
 10
60.407421
 20
240.369434
 30
0.0
 10
60.407421
 20
240.079126
 30
0.0
 10
60.512152
 20
239.840265
 30
0.0
 10
60.721614
 20
239.652852
 30
0.0
  0
SPLINE
  5
271
100
AcDbEntity
  8
Layer_1
 62
7
100
AcDbSpline
 70
8
 71
3
 72
8
 73
4
 74
0
 40
0
 40
0
 40
0
 40
0
 40
1
 40
1
 40
1
 40
1
 10
60.721614
 20
239.652852
 30
0.0
 10
60.927401
 20
239.465439
 30
0.0
 10
61.463918
 20
239.272514
 30
0.0
 10
62.331164
 20
239.074076
 30
0.0
  0
SPLINE
  5
272
100
AcDbEntity
  8
Layer_1
 62
7
100
AcDbSpline
 70
8
 71
3
 72
8
 73
4
 74
0
 40
0
 40
0
 40
0
 40
0
 40
1
 40
1
 40
1
 40
1
 10
62.331164
 20
239.074076
 30
0.0
 10
63.202084
 20
238.879313
 30
0.0
 10
63.799234
 20
238.708436
 30
0.0
 10
64.122613
 20
238.561446
 30
0.0
  0
SPLINE
  5
273
100
AcDbEntity
  8
Layer_1
 62
7
100
AcDbSpline
 70
8
 71
3
 72
8
 73
4
 74
0
 40
0
 40
0
 40
0
 40
0
 40
1
 40
1
 40
1
 40
1
 10
64.122613
 20
238.561446
 30
0.0
 10
64.592984
 20
238.344634
 30
0.0
 10
64.940250
 20
238.069026
 30
0.0
 10
65.164412
 20
237.734623
 30
0.0
  0
SPLINE
  5
274
100
AcDbEntity
  8
Layer_1
 62
7
100
AcDbSpline
 70
8
 71
3
 72
8
 73
4
 74
0
 40
0
 40
0
 40
0
 40
0
 40
1
 40
1
 40
1
 40
1
 10
65.164412
 20
237.734623
 30
0.0
 10
65.388572
 20
237.403892
 30
0.0
 10
65.500653
 20
237.021716
 30
0.0
 10
65.500653
 20
236.588094
 30
0.0
  0
SPLINE
  5
275
100
AcDbEntity
  8
Layer_1
 62
7
100
AcDbSpline
 70
8
 71
3
 72
8
 73
4
 74
0
 40
0
 40
0
 40
0
 40
0
 40
1
 40
1
 40
1
 40
1
 10
65.500653
 20
236.588094
 30
0.0
 10
65.500653
 20
236.158146
 30
0.0
 10
65.377548
 20
235.752083
 30
0.0
 10
65.131339
 20
235.369907
 30
0.0
  0
SPLINE
  5
276
100
AcDbEntity
  8
Layer_1
 62
7
100
AcDbSpline
 70
8
 71
3
 72
8
 73
4
 74
0
 40
0
 40
0
 40
0
 40
0
 40
1
 40
1
 40
1
 40
1
 10
65.131339
 20
235.369907
 30
0.0
 10
64.885129
 20
234.991405
 30
0.0
 10
64.530513
 20
234.695585
 30
0.0
 10
64.067492
 20
234.482449
 30
0.0
  0
SPLINE
  5
277
100
AcDbEntity
  8
Layer_1
 62
7
100
AcDbSpline
 70
8
 71
3
 72
8
 73
4
 74
0
 40
0
 40
0
 40
0
 40
0
 40
1
 40
1
 40
1
 40
1
 10
64.067492
 20
234.482449
 30
0.0
 10
63.608145
 20
234.272988
 30
0.0
 10
63.090003
 20
234.168257
 30
0.0
 10
62.513065
 20
234.168257
 30
0.0
  0
SPLINE
  5
278
100
AcDbEntity
  8
Layer_1
 62
7
100
AcDbSpline
 70
8
 71
3
 72
8
 73
4
 74
0
 40
0
 40
0
 40
0
 40
0
 40
1
 40
1
 40
1
 40
1
 10
62.513065
 20
234.168257
 30
0.0
 10
61.781785
 20
234.168257
 30
0.0
 10
61.168098
 20
234.274825
 30
0.0
 10
60.672004
 20
234.487961
 30
0.0
  0
SPLINE
  5
279
100
AcDbEntity
  8
Layer_1
 62
7
100
AcDbSpline
 70
8
 71
3
 72
8
 73
4
 74
0
 40
0
 40
0
 40
0
 40
0
 40
1
 40
1
 40
1
 40
1
 10
60.672004
 20
234.487961
 30
0.0
 10
60.179585
 20
234.701098
 30
0.0
 10
59.791896
 20
235.020804
 30
0.0
 10
59.508938
 20
235.447078
 30
0.0
  0
SPLINE
  5
27a
100
AcDbEntity
  8
Layer_1
 62
7
100
AcDbSpline
 70
8
 71
3
 72
8
 73
4
 74
0
 40
0
 40
0
 40
0
 40
0
 40
1
 40
1
 40
1
 40
1
 10
59.508938
 20
235.447078
 30
0.0
 10
59.229656
 20
235.877026
 30
0.0
 10
59.082665
 20
236.362095
 30
0.0
 10
59.067965
 20
236.902286
 30
0.0
  0
LWPOLYLINE
  5
27b
100
AcDbEntity
  8
Layer_1
 62
7
100
AcDbPolyline
 90
2
 70
0
 10
65.258117
 20
240.110362
 30
0.0
 10
64.232857
 20
240.033191
 30
0.0
  0
LWPOLYLINE
  5
27c
100
AcDbEntity
  8
Layer_1
 62
7
100
AcDbPolyline
 90
1
 70
1
 10
59.067965
 20
236.902286
 30
0.0
  0
SPLINE
  5
27d
100
AcDbEntity
  8
Layer_1
 62
7
100
AcDbSpline
 70
8
 71
3
 72
8
 73
4
 74
0
 40
0
 40
0
 40
0
 40
0
 40
1
 40
1
 40
1
 40
1
 10
70.671055
 20
235.165958
 30
0.0
 10
70.215385
 20
234.504498
 30
0.0
 10
69.596186
 20
234.173768
 30
0.0
 10
68.813458
 20
234.173768
 30
0.0
  0
SPLINE
  5
27e
100
AcDbEntity
  8
Layer_1
 62
7
100
AcDbSpline
 70
8
 71
3
 72
8
 73
4
 74
0
 40
0
 40
0
 40
0
 40
0
 40
1
 40
1
 40
1
 40
1
 10
68.813458
 20
234.173768
 30
0.0
 10
68.468030
 20
234.173768
 30
0.0
 10
68.144651
 20
234.239914
 30
0.0
 10
67.843318
 20
234.372205
 30
0.0
  0
SPLINE
  5
27f
100
AcDbEntity
  8
Layer_1
 62
7
100
AcDbSpline
 70
8
 71
3
 72
8
 73
4
 74
0
 40
0
 40
0
 40
0
 40
0
 40
1
 40
1
 40
1
 40
1
 10
67.843318
 20
234.372205
 30
0.0
 10
67.545662
 20
234.504497
 30
0.0
 10
67.323339
 20
234.669862
 30
0.0
 10
67.176349
 20
234.868299
 30
0.0
  0
SPLINE
  5
280
100
AcDbEntity
  8
Layer_1
 62
7
100
AcDbSpline
 70
8
 71
3
 72
8
 73
4
 74
0
 40
0
 40
0
 40
0
 40
0
 40
1
 40
1
 40
1
 40
1
 10
67.176349
 20
234.868299
 30
0.0
 10
67.033033
 20
235.070413
 30
0.0
 10
66.931977
 20
235.316622
 30
0.0
 10
66.873181
 20
235.606929
 30
0.0
  0
SPLINE
  5
281
100
AcDbEntity
  8
Layer_1
 62
7
100
AcDbSpline
 70
8
 71
3
 72
8
 73
4
 74
0
 40
0
 40
0
 40
0
 40
0
 40
1
 40
1
 40
1
 40
1
 10
66.873181
 20
235.606929
 30
0.0
 10
66.832758
 20
235.801692
 30
0.0
 10
66.812547
 20
236.110373
 30
0.0
 10
66.812547
 20
236.532973
 30
0.0
  0
LWPOLYLINE
  5
282
100
AcDbEntity
  8
Layer_1
 62
7
100
AcDbPolyline
 90
2
 70
0
 10
70.671055
 20
234.306060
 30
0.0
 10
70.671055
 20
235.165958
 30
0.0
  0
SPLINE
  5
283
100
AcDbEntity
  8
Layer_1
 62
7
100
AcDbSpline
 70
8
 71
3
 72
8
 73
4
 74
0
 40
0
 40
0
 40
0
 40
0
 40
1
 40
1
 40
1
 40
1
 10
67.804734
 20
236.913311
 30
0.0
 10
67.804734
 20
236.395167
 30
0.0
 10
67.824946
 20
236.046064
 30
0.0
 10
67.865369
 20
235.866001
 30
0.0
  0
SPLINE
  5
284
100
AcDbEntity
  8
Layer_1
 62
7
100
AcDbSpline
 70
8
 71
3
 72
8
 73
4
 74
0
 40
0
 40
0
 40
0
 40
0
 40
1
 40
1
 40
1
 40
1
 10
67.865369
 20
235.866001
 30
0.0
 10
67.927840
 20
235.605091
 30
0.0
 10
68.060132
 20
235.399305
 30
0.0
 10
68.262244
 20
235.248640
 30
0.0
  0
SPLINE
  5
285
100
AcDbEntity
  8
Layer_1
 62
7
100
AcDbSpline
 70
8
 71
3
 72
8
 73
4
 74
0
 40
0
 40
0
 40
0
 40
0
 40
1
 40
1
 40
1
 40
1
 10
68.262244
 20
235.248640
 30
0.0
 10
68.464355
 20
235.101648
 30
0.0
 10
68.714239
 20
235.028153
 30
0.0
 10
69.011896
 20
235.028153
 30
0.0
  0
SPLINE
  5
286
100
AcDbEntity
  8
Layer_1
 62
7
100
AcDbSpline
 70
8
 71
3
 72
8
 73
4
 74
0
 40
0
 40
0
 40
0
 40
0
 40
1
 40
1
 40
1
 40
1
 10
69.011896
 20
235.028153
 30
0.0
 10
69.309554
 20
235.028153
 30
0.0
 10
69.588836
 20
235.103486
 30
0.0
 10
69.849744
 20
235.254152
 30
0.0
  0
SPLINE
  5
287
100
AcDbEntity
  8
Layer_1
 62
7
100
AcDbSpline
 70
8
 71
3
 72
8
 73
4
 74
0
 40
0
 40
0
 40
0
 40
0
 40
1
 40
1
 40
1
 40
1
 10
69.849744
 20
235.254152
 30
0.0
 10
70.110653
 20
235.408492
 30
0.0
 10
70.294392
 20
235.616117
 30
0.0
 10
70.400961
 20
235.877026
 30
0.0
  0
SPLINE
  5
288
100
AcDbEntity
  8
Layer_1
 62
7
100
AcDbSpline
 70
8
 71
3
 72
8
 73
4
 74
0
 40
0
 40
0
 40
0
 40
0
 40
1
 40
1
 40
1
 40
1
 10
70.400961
 20
235.877026
 30
0.0
 10
70.511204
 20
236.141609
 30
0.0
 10
70.566325
 20
236.523785
 30
0.0
 10
70.566325
 20
237.023553
 30
0.0
  0
LWPOLYLINE
  5
289
100
AcDbEntity
  8
Layer_1
 62
7
100
AcDbPolyline
 90
4
 70
0
 10
66.812547
 20
236.532973
 30
0.0
 10
66.812547
 20
240.159971
 30
0.0
 10
67.804734
 20
240.159971
 30
0.0
 10
67.804734
 20
236.913311
 30
0.0
  0
LWPOLYLINE
  5
28a
100
AcDbEntity
  8
Layer_1
 62
7
100
AcDbPolyline
 90
5
 70
0
 10
70.566325
 20
237.023553
 30
0.0
 10
70.566325
 20
240.159971
 30
0.0
 10
71.558513
 20
240.159971
 30
0.0
 10
71.558513
 20
234.306060
 30
0.0
 10
70.671055
 20
234.306060
 30
0.0
  0
SPLINE
  5
28b
100
AcDbEntity
  8
Layer_1
 62
7
100
AcDbSpline
 70
8
 71
3
 72
8
 73
4
 74
0
 40
0
 40
0
 40
0
 40
0
 40
1
 40
1
 40
1
 40
1
 10
74.005911
 20
239.327634
 30
0.0
 10
74.435859
 20
239.970720
 30
0.0
 10
75.056895
 20
240.292263
 30
0.0
 10
75.869020
 20
240.292263
 30
0.0
  0
SPLINE
  5
28c
100
AcDbEntity
  8
Layer_1
 62
7
100
AcDbSpline
 70
8
 71
3
 72
8
 73
4
 74
0
 40
0
 40
0
 40
0
 40
0
 40
1
 40
1
 40
1
 40
1
 10
75.869020
 20
240.292263
 30
0.0
 10
76.221798
 20
240.292263
 30
0.0
 10
76.545177
 20
240.227954
 30
0.0
 10
76.839160
 20
240.099337
 30
0.0
  0
SPLINE
  5
28d
100
AcDbEntity
  8
Layer_1
 62
7
100
AcDbSpline
 70
8
 71
3
 72
8
 73
4
 74
0
 40
0
 40
0
 40
0
 40
0
 40
1
 40
1
 40
1
 40
1
 10
76.839160
 20
240.099337
 30
0.0
 10
77.136816
 20
239.974395
 30
0.0
 10
77.359139
 20
239.809030
 30
0.0
 10
77.506129
 20
239.603243
 30
0.0
  0
SPLINE
  5
28e
100
AcDbEntity
  8
Layer_1
 62
7
100
AcDbSpline
 70
8
 71
3
 72
8
 73
4
 74
0
 40
0
 40
0
 40
0
 40
0
 40
1
 40
1
 40
1
 40
1
 10
77.506129
 20
239.603243
 30
0.0
 10
77.653121
 20
239.397455
 30
0.0
 10
77.756015
 20
239.153083
 30
0.0
 10
77.814811
 20
238.870127
 30
0.0
  0
SPLINE
  5
28f
100
AcDbEntity
  8
Layer_1
 62
7
100
AcDbSpline
 70
8
 71
3
 72
8
 73
4
 74
0
 40
0
 40
0
 40
0
 40
0
 40
1
 40
1
 40
1
 40
1
 10
77.814811
 20
238.870127
 30
0.0
 10
77.851559
 20
238.686388
 30
0.0
 10
77.869934
 20
238.364846
 30
0.0
 10
77.869934
 20
237.905499
 30
0.0
  0
LWPOLYLINE
  5
290
100
AcDbEntity
  8
Layer_1
 62
7
100
AcDbPolyline
 90
4
 70
0
 10
73.112943
 20
234.306060
 30
0.0
 10
73.112943
 20
240.159971
 30
0.0
 10
74.005911
 20
240.159971
 30
0.0
 10
74.005911
 20
239.327634
 30
0.0
  0
SPLINE
  5
291
100
AcDbEntity
  8
Layer_1
 62
7
100
AcDbSpline
 70
8
 71
3
 72
8
 73
4
 74
0
 40
0
 40
0
 40
0
 40
0
 40
1
 40
1
 40
1
 40
1
 10
76.877744
 20
237.866915
 30
0.0
 10
76.877744
 20
238.271138
 30
0.0
 10
76.839159
 20
238.572469
 30
0.0
 10
76.761988
 20
238.770909
 30
0.0
  0
SPLINE
  5
292
100
AcDbEntity
  8
Layer_1
 62
7
100
AcDbSpline
 70
8
 71
3
 72
8
 73
4
 74
0
 40
0
 40
0
 40
0
 40
0
 40
1
 40
1
 40
1
 40
1
 10
76.761988
 20
238.770909
 30
0.0
 10
76.684818
 20
238.973020
 30
0.0
 10
76.547015
 20
239.132873
 30
0.0
 10
76.348577
 20
239.250466
 30
0.0
  0
SPLINE
  5
293
100
AcDbEntity
  8
Layer_1
 62
7
100
AcDbSpline
 70
8
 71
3
 72
8
 73
4
 74
0
 40
0
 40
0
 40
0
 40
0
 40
1
 40
1
 40
1
 40
1
 10
76.348577
 20
239.250466
 30
0.0
 10
76.153814
 20
239.371733
 30
0.0
 10
75.924140
 20
239.432367
 30
0.0
 10
75.659557
 20
239.432367
 30
0.0
  0
SPLINE
  5
294
100
AcDbEntity
  8
Layer_1
 62
7
100
AcDbSpline
 70
8
 71
3
 72
8
 73
4
 74
0
 40
0
 40
0
 40
0
 40
0
 40
1
 40
1
 40
1
 40
1
 10
75.659557
 20
239.432367
 30
0.0
 10
75.236959
 20
239.432367
 30
0.0
 10
74.871320
 20
239.298237
 30
0.0
 10
74.562640
 20
239.029978
 30
0.0
  0
SPLINE
  5
295
100
AcDbEntity
  8
Layer_1
 62
7
100
AcDbSpline
 70
8
 71
3
 72
8
 73
4
 74
0
 40
0
 40
0
 40
0
 40
0
 40
1
 40
1
 40
1
 40
1
 10
74.562640
 20
239.029978
 30
0.0
 10
74.257633
 20
238.761721
 30
0.0
 10
74.105130
 20
238.252765
 30
0.0
 10
74.105130
 20
237.503113
 30
0.0
  0
LWPOLYLINE
  5
296
100
AcDbEntity
  8
Layer_1
 62
7
100
AcDbPolyline
 90
4
 70
0
 10
77.869934
 20
237.905499
 30
0.0
 10
77.869934
 20
234.306060
 30
0.0
 10
76.877744
 20
234.306060
 30
0.0
 10
76.877744
 20
237.866915
 30
0.0
  0
LWPOLYLINE
  5
297
100
AcDbEntity
  8
Layer_1
 62
7
100
AcDbPolyline
 90
3
 70
0
 10
74.105130
 20
237.503113
 30
0.0
 10
74.105130
 20
234.306060
 30
0.0
 10
73.112943
 20
234.306060
 30
0.0
  0
SPLINE
  5
298
100
AcDbEntity
  8
Layer_1
 62
7
100
AcDbSpline
 70
8
 71
3
 72
8
 73
4
 74
0
 40
0
 40
0
 40
0
 40
0
 40
1
 40
1
 40
1
 40
1
 10
42.692685
 20
183.039754
 30
0.0
 10
42.791903
 20
182.623587
 30
0.0
 10
42.877342
 20
182.210176
 30
0.0
 10
42.949000
 20
181.799520
 30
0.0
  0
SPLINE
  5
299
100
AcDbEntity
  8
Layer_1
 62
7
100
AcDbSpline
 70
8
 71
3
 72
8
 73
4
 74
0
 40
0
 40
0
 40
0
 40
0
 40
1
 40
1
 40
1
 40
1
 10
42.949000
 20
181.799520
 30
0.0
 10
43.103340
 20
182.447198
 30
0.0
 10
43.194290
 20
182.820647
 30
0.0
 10
43.221851
 20
182.919866
 30
0.0
  0
LWPOLYLINE
  5
29a
100
AcDbEntity
  8
Layer_1
 62
7
100
AcDbPolyline
 90
4
 70
0
 10
42.556257
 20
180.952027
 30
0.0
 10
40.948088
 20
187.012639
 30
0.0
 10
41.770776
 20
187.012639
 30
0.0
 10
42.692685
 20
183.039754
 30
0.0
  0
SPLINE
  5
29b
100
AcDbEntity
  8
Layer_1
 62
7
100
AcDbSpline
 70
8
 71
3
 72
8
 73
4
 74
0
 40
0
 40
0
 40
0
 40
0
 40
1
 40
1
 40
1
 40
1
 10
46.210815
 20
183.945126
 30
0.0
 10
46.428546
 20
183.184449
 30
0.0
 10
46.585642
 20
182.469247
 30
0.0
 10
46.682104
 20
181.799520
 30
0.0
  0
SPLINE
  5
29c
100
AcDbEntity
  8
Layer_1
 62
7
100
AcDbSpline
 70
8
 71
3
 72
8
 73
4
 74
0
 40
0
 40
0
 40
0
 40
0
 40
1
 40
1
 40
1
 40
1
 10
46.682104
 20
181.799520
 30
0.0
 10
46.759274
 20
182.182615
 30
0.0
 10
46.859871
 20
182.622210
 30
0.0
 10
46.983895
 20
183.118303
 30
0.0
  0
LWPOLYLINE
  5
29d
100
AcDbEntity
  8
Layer_1
 62
7
100
AcDbPolyline
 90
4
 70
0
 10
43.221851
 20
182.919866
 30
0.0
 10
44.375268
 20
187.012639
 30
0.0
 10
45.342651
 20
187.012639
 30
0.0
 10
46.210815
 20
183.945126
 30
0.0
  0
SPLINE
  5
29e
100
AcDbEntity
  8
Layer_1
 62
7
100
AcDbSpline
 70
8
 71
3
 72
8
 73
4
 74
0
 40
0
 40
0
 40
0
 40
0
 40
1
 40
1
 40
1
 40
1
 10
45.028458
 20
185.569832
 30
0.0
 10
44.920972
 20
185.955683
 30
0.0
 10
44.857582
 20
186.192705
 30
0.0
 10
44.838289
 20
186.280900
 30
0.0
  0
SPLINE
  5
29f
100
AcDbEntity
  8
Layer_1
 62
7
100
AcDbSpline
 70
8
 71
3
 72
8
 73
4
 74
0
 40
0
 40
0
 40
0
 40
0
 40
1
 40
1
 40
1
 40
1
 10
44.838289
 20
186.280900
 30
0.0
 10
44.774900
 20
186.002537
 30
0.0
 10
44.715645
 20
185.765514
 30
0.0
 10
44.660523
 20
185.569832
 30
0.0
  0
LWPOLYLINE
  5
2a0
100
AcDbEntity
  8
Layer_1
 62
7
100
AcDbPolyline
 90
6
 70
0
 10
46.983895
 20
183.118303
 30
0.0
 10
47.934742
 20
187.012639
 30
0.0
 10
48.740893
 20
187.012639
 30
0.0
 10
47.078979
 20
180.952027
 30
0.0
 10
46.305901
 20
180.952027
 30
0.0
 10
45.028458
 20
185.569832
 30
0.0
  0
SPLINE
  5
2a1
100
AcDbEntity
  8
Layer_1
 62
7
100
AcDbSpline
 70
8
 71
3
 72
8
 73
4
 74
0
 40
0
 40
0
 40
0
 40
0
 40
1
 40
1
 40
1
 40
1
 10
51.944833
 20
181.493595
 30
0.0
 10
51.669225
 20
181.259330
 30
0.0
 10
51.403263
 20
181.093965
 30
0.0
 10
51.146947
 20
180.997501
 30
0.0
  0
SPLINE
  5
2a2
100
AcDbEntity
  8
Layer_1
 62
7
100
AcDbSpline
 70
8
 71
3
 72
8
 73
4
 74
0
 40
0
 40
0
 40
0
 40
0
 40
1
 40
1
 40
1
 40
1
 10
51.146947
 20
180.997501
 30
0.0
 10
50.893388
 20
180.901040
 30
0.0
 10
50.620537
 20
180.852809
 30
0.0
 10
50.328393
 20
180.852809
 30
0.0
  0
SPLINE
  5
2a3
100
AcDbEntity
  8
Layer_1
 62
7
100
AcDbSpline
 70
8
 71
3
 72
8
 73
4
 74
0
 40
0
 40
0
 40
0
 40
0
 40
1
 40
1
 40
1
 40
1
 10
50.328393
 20
180.852809
 30
0.0
 10
49.846080
 20
180.852809
 30
0.0
 10
49.475388
 20
180.969941
 30
0.0
 10
49.216317
 20
181.204207
 30
0.0
  0
SPLINE
  5
2a4
100
AcDbEntity
  8
Layer_1
 62
7
100
AcDbSpline
 70
8
 71
3
 72
8
 73
4
 74
0
 40
0
 40
0
 40
0
 40
0
 40
1
 40
1
 40
1
 40
1
 10
49.216317
 20
181.204207
 30
0.0
 10
48.957246
 20
181.441230
 30
0.0
 10
48.827711
 20
181.743020
 30
0.0
 10
48.827711
 20
182.109580
 30
0.0
  0
SPLINE
  5
2a5
100
AcDbEntity
  8
Layer_1
 62
7
100
AcDbSpline
 70
8
 71
3
 72
8
 73
4
 74
0
 40
0
 40
0
 40
0
 40
0
 40
1
 40
1
 40
1
 40
1
 10
48.827711
 20
182.109580
 30
0.0
 10
48.827711
 20
182.324553
 30
0.0
 10
48.875941
 20
182.520235
 30
0.0
 10
48.972403
 20
182.696624
 30
0.0
  0
SPLINE
  5
2a6
100
AcDbEntity
  8
Layer_1
 62
7
100
AcDbSpline
 70
8
 71
3
 72
8
 73
4
 74
0
 40
0
 40
0
 40
0
 40
0
 40
1
 40
1
 40
1
 40
1
 10
48.972403
 20
182.696624
 30
0.0
 10
49.071622
 20
182.875768
 30
0.0
 10
49.199780
 20
183.019084
 30
0.0
 10
49.356877
 20
183.126572
 30
0.0
  0
SPLINE
  5
2a7
100
AcDbEntity
  8
Layer_1
 62
7
100
AcDbSpline
 70
8
 71
3
 72
8
 73
4
 74
0
 40
0
 40
0
 40
0
 40
0
 40
1
 40
1
 40
1
 40
1
 10
49.356877
 20
183.126572
 30
0.0
 10
49.516730
 20
183.234058
 30
0.0
 10
49.695875
 20
183.315362
 30
0.0
 10
49.894312
 20
183.370483
 30
0.0
  0
SPLINE
  5
2a8
100
AcDbEntity
  8
Layer_1
 62
7
100
AcDbSpline
 70
8
 71
3
 72
8
 73
4
 74
0
 40
0
 40
0
 40
0
 40
0
 40
1
 40
1
 40
1
 40
1
 10
49.894312
 20
183.370483
 30
0.0
 10
50.040383
 20
183.409068
 30
0.0
 10
50.260869
 20
183.446276
 30
0.0
 10
50.555770
 20
183.482106
 30
0.0
  0
SPLINE
  5
2a9
100
AcDbEntity
  8
Layer_1
 62
7
100
AcDbSpline
 70
8
 71
3
 72
8
 73
4
 74
0
 40
0
 40
0
 40
0
 40
0
 40
1
 40
1
 40
1
 40
1
 10
50.555770
 20
183.482106
 30
0.0
 10
51.156595
 20
183.553764
 30
0.0
 10
51.598945
 20
183.639202
 30
0.0
 10
51.882820
 20
183.738421
 30
0.0
  0
SPLINE
  5
2aa
100
AcDbEntity
  8
Layer_1
 62
7
100
AcDbSpline
 70
8
 71
3
 72
8
 73
4
 74
0
 40
0
 40
0
 40
0
 40
0
 40
1
 40
1
 40
1
 40
1
 10
51.882820
 20
183.738421
 30
0.0
 10
51.885571
 20
183.840395
 30
0.0
 10
51.886947
 20
183.905162
 30
0.0
 10
51.886947
 20
183.932723
 30
0.0
  0
SPLINE
  5
2ab
100
AcDbEntity
  8
Layer_1
 62
7
100
AcDbSpline
 70
8
 71
3
 72
8
 73
4
 74
0
 40
0
 40
0
 40
0
 40
0
 40
1
 40
1
 40
1
 40
1
 10
51.886947
 20
183.932723
 30
0.0
 10
51.886947
 20
184.235891
 30
0.0
 10
51.816667
 20
184.449487
 30
0.0
 10
51.676106
 20
184.573512
 30
0.0
  0
SPLINE
  5
2ac
100
AcDbEntity
  8
Layer_1
 62
7
100
AcDbSpline
 70
8
 71
3
 72
8
 73
4
 74
0
 40
0
 40
0
 40
0
 40
0
 40
1
 40
1
 40
1
 40
1
 10
51.676106
 20
184.573512
 30
0.0
 10
51.485938
 20
184.741632
 30
0.0
 10
51.203440
 20
184.825691
 30
0.0
 10
50.828614
 20
184.825691
 30
0.0
  0
SPLINE
  5
2ad
100
AcDbEntity
  8
Layer_1
 62
7
100
AcDbSpline
 70
8
 71
3
 72
8
 73
4
 74
0
 40
0
 40
0
 40
0
 40
0
 40
1
 40
1
 40
1
 40
1
 10
50.828614
 20
184.825691
 30
0.0
 10
50.478591
 20
184.825691
 30
0.0
 10
50.219520
 20
184.763680
 30
0.0
 10
50.051400
 20
184.639658
 30
0.0
  0
SPLINE
  5
2ae
100
AcDbEntity
  8
Layer_1
 62
7
100
AcDbSpline
 70
8
 71
3
 72
8
 73
4
 74
0
 40
0
 40
0
 40
0
 40
0
 40
1
 40
1
 40
1
 40
1
 10
50.051400
 20
184.639658
 30
0.0
 10
49.886036
 20
184.518390
 30
0.0
 10
49.763390
 20
184.302038
 30
0.0
 10
49.683463
 20
183.990600
 30
0.0
  0
LWPOLYLINE
  5
2af
100
AcDbEntity
  8
Layer_1
 62
7
100
AcDbPolyline
 90
3
 70
0
 10
44.660523
 20
185.569832
 30
0.0
 10
43.374812
 20
180.952027
 30
0.0
 10
42.556257
 20
180.952027
 30
0.0
  0
SPLINE
  5
2b0
100
AcDbEntity
  8
Layer_1
 62
7
100
AcDbSpline
 70
8
 71
3
 72
8
 73
4
 74
0
 40
0
 40
0
 40
0
 40
0
 40
1
 40
1
 40
1
 40
1
 10
48.955859
 20
184.089819
 30
0.0
 10
49.022005
 20
184.401257
 30
0.0
 10
49.130870
 20
184.652059
 30
0.0
 10
49.282455
 20
184.842228
 30
0.0
  0
SPLINE
  5
2b1
100
AcDbEntity
  8
Layer_1
 62
7
100
AcDbSpline
 70
8
 71
3
 72
8
 73
4
 74
0
 40
0
 40
0
 40
0
 40
0
 40
1
 40
1
 40
1
 40
1
 10
49.282455
 20
184.842228
 30
0.0
 10
49.434038
 20
185.035153
 30
0.0
 10
49.653146
 20
185.182604
 30
0.0
 10
49.939778
 20
185.284579
 30
0.0
  0
SPLINE
  5
2b2
100
AcDbEntity
  8
Layer_1
 62
7
100
AcDbSpline
 70
8
 71
3
 72
8
 73
4
 74
0
 40
0
 40
0
 40
0
 40
0
 40
1
 40
1
 40
1
 40
1
 10
49.939778
 20
185.284579
 30
0.0
 10
50.226410
 20
185.389310
 30
0.0
 10
50.558518
 20
185.441676
 30
0.0
 10
50.936101
 20
185.441676
 30
0.0
  0
SPLINE
  5
2b3
100
AcDbEntity
  8
Layer_1
 62
7
100
AcDbSpline
 70
8
 71
3
 72
8
 73
4
 74
0
 40
0
 40
0
 40
0
 40
0
 40
1
 40
1
 40
1
 40
1
 10
50.936101
 20
185.441676
 30
0.0
 10
51.310927
 20
185.441676
 30
0.0
 10
51.615473
 20
185.397579
 30
0.0
 10
51.849739
 20
185.309384
 30
0.0
  0
SPLINE
  5
2b4
100
AcDbEntity
  8
Layer_1
 62
7
100
AcDbSpline
 70
8
 71
3
 72
8
 73
4
 74
0
 40
0
 40
0
 40
0
 40
0
 40
1
 40
1
 40
1
 40
1
 10
51.849739
 20
185.309384
 30
0.0
 10
52.084006
 20
185.221190
 30
0.0
 10
52.256262
 20
185.109568
 30
0.0
 10
52.366505
 20
184.974520
 30
0.0
  0
SPLINE
  5
2b5
100
AcDbEntity
  8
Layer_1
 62
7
100
AcDbSpline
 70
8
 71
3
 72
8
 73
4
 74
0
 40
0
 40
0
 40
0
 40
0
 40
1
 40
1
 40
1
 40
1
 10
52.366505
 20
184.974520
 30
0.0
 10
52.476748
 20
184.842228
 30
0.0
 10
52.553918
 20
184.674107
 30
0.0
 10
52.598015
 20
184.470158
 30
0.0
  0
SPLINE
  5
2b6
100
AcDbEntity
  8
Layer_1
 62
7
100
AcDbSpline
 70
8
 71
3
 72
8
 73
4
 74
0
 40
0
 40
0
 40
0
 40
0
 40
1
 40
1
 40
1
 40
1
 10
52.598015
 20
184.470158
 30
0.0
 10
52.622819
 20
184.343378
 30
0.0
 10
52.635221
 20
184.114624
 30
0.0
 10
52.635221
 20
183.783895
 30
0.0
  0
LWPOLYLINE
  5
2b7
100
AcDbEntity
  8
Layer_1
 62
7
100
AcDbPolyline
 90
2
 70
0
 10
49.683463
 20
183.990600
 30
0.0
 10
48.955859
 20
184.089819
 30
0.0
  0
SPLINE
  5
2b8
100
AcDbEntity
  8
Layer_1
 62
7
100
AcDbSpline
 70
8
 71
3
 72
8
 73
4
 74
0
 40
0
 40
0
 40
0
 40
0
 40
1
 40
1
 40
1
 40
1
 10
52.635221
 20
182.791707
 30
0.0
 10
52.635221
 20
182.099933
 30
0.0
 10
52.650380
 20
181.661717
 30
0.0
 10
52.680697
 20
181.477059
 30
0.0
  0
SPLINE
  5
2b9
100
AcDbEntity
  8
Layer_1
 62
7
100
AcDbSpline
 70
8
 71
3
 72
8
 73
4
 74
0
 40
0
 40
0
 40
0
 40
0
 40
1
 40
1
 40
1
 40
1
 10
52.680697
 20
181.477059
 30
0.0
 10
52.713770
 20
181.295158
 30
0.0
 10
52.777160
 20
181.120147
 30
0.0
 10
52.870867
 20
180.952027
 30
0.0
  0
LWPOLYLINE
  5
2ba
100
AcDbEntity
  8
Layer_1
 62
7
100
AcDbPolyline
 90
2
 70
0
 10
52.635221
 20
183.783895
 30
0.0
 10
52.635221
 20
182.791707
 30
0.0
  0
SPLINE
  5
2bb
100
AcDbEntity
  8
Layer_1
 62
7
100
AcDbSpline
 70
8
 71
3
 72
8
 73
4
 74
0
 40
0
 40
0
 40
0
 40
0
 40
1
 40
1
 40
1
 40
1
 10
52.093653
 20
180.952027
 30
0.0
 10
52.016483
 20
181.106368
 30
0.0
 10
51.966874
 20
181.286890
 30
0.0
 10
51.944825
 20
181.493595
 30
0.0
  0
LWPOLYLINE
  5
2bc
100
AcDbEntity
  8
Layer_1
 62
7
100
AcDbPolyline
 90
2
 70
0
 10
52.870867
 20
180.952027
 30
0.0
 10
52.093653
 20
180.952027
 30
0.0
  0
SPLINE
  5
2bd
100
AcDbEntity
  8
Layer_1
 62
7
100
AcDbSpline
 70
8
 71
3
 72
8
 73
4
 74
0
 40
0
 40
0
 40
0
 40
0
 40
1
 40
1
 40
1
 40
1
 10
51.882820
 20
183.155509
 30
0.0
 10
51.612724
 20
183.045266
 30
0.0
 10
51.207581
 20
182.951560
 30
0.0
 10
50.667390
 20
182.874389
 30
0.0
  0
SPLINE
  5
2be
100
AcDbEntity
  8
Layer_1
 62
7
100
AcDbSpline
 70
8
 71
3
 72
8
 73
4
 74
0
 40
0
 40
0
 40
0
 40
0
 40
1
 40
1
 40
1
 40
1
 10
50.667390
 20
182.874389
 30
0.0
 10
50.361467
 20
182.830292
 30
0.0
 10
50.145115
 20
182.780683
 30
0.0
 10
50.018335
 20
182.725561
 30
0.0
  0
SPLINE
  5
2bf
100
AcDbEntity
  8
Layer_1
 62
7
100
AcDbSpline
 70
8
 71
3
 72
8
 73
4
 74
0
 40
0
 40
0
 40
0
 40
0
 40
1
 40
1
 40
1
 40
1
 10
50.018335
 20
182.725561
 30
0.0
 10
49.891556
 20
182.670440
 30
0.0
 10
49.793715
 20
182.589136
 30
0.0
 10
49.724812
 20
182.481650
 30
0.0
  0
SPLINE
  5
2c0
100
AcDbEntity
  8
Layer_1
 62
7
100
AcDbSpline
 70
8
 71
3
 72
8
 73
4
 74
0
 40
0
 40
0
 40
0
 40
0
 40
1
 40
1
 40
1
 40
1
 10
49.724812
 20
182.481650
 30
0.0
 10
49.655911
 20
182.376919
 30
0.0
 10
49.621460
 20
182.259785
 30
0.0
 10
49.621460
 20
182.130249
 30
0.0
  0
SPLINE
  5
2c1
100
AcDbEntity
  8
Layer_1
 62
7
100
AcDbSpline
 70
8
 71
3
 72
8
 73
4
 74
0
 40
0
 40
0
 40
0
 40
0
 40
1
 40
1
 40
1
 40
1
 10
49.621460
 20
182.130249
 30
0.0
 10
49.621460
 20
181.931811
 30
0.0
 10
49.695875
 20
181.766447
 30
0.0
 10
49.844703
 20
181.634155
 30
0.0
  0
SPLINE
  5
2c2
100
AcDbEntity
  8
Layer_1
 62
7
100
AcDbSpline
 70
8
 71
3
 72
8
 73
4
 74
0
 40
0
 40
0
 40
0
 40
0
 40
1
 40
1
 40
1
 40
1
 10
49.844703
 20
181.634155
 30
0.0
 10
49.996286
 20
181.501863
 30
0.0
 10
50.216772
 20
181.435718
 30
0.0
 10
50.506161
 20
181.435718
 30
0.0
  0
SPLINE
  5
2c3
100
AcDbEntity
  8
Layer_1
 62
7
100
AcDbSpline
 70
8
 71
3
 72
8
 73
4
 74
0
 40
0
 40
0
 40
0
 40
0
 40
1
 40
1
 40
1
 40
1
 10
50.506161
 20
181.435718
 30
0.0
 10
50.792793
 20
181.435718
 30
0.0
 10
51.047730
 20
181.497730
 30
0.0
 10
51.270971
 20
181.621754
 30
0.0
  0
SPLINE
  5
2c4
100
AcDbEntity
  8
Layer_1
 62
7
100
AcDbSpline
 70
8
 71
3
 72
8
 73
4
 74
0
 40
0
 40
0
 40
0
 40
0
 40
1
 40
1
 40
1
 40
1
 10
51.270971
 20
181.621754
 30
0.0
 10
51.494214
 20
181.748534
 30
0.0
 10
51.658201
 20
181.920788
 30
0.0
 10
51.762932
 20
182.138517
 30
0.0
  0
SPLINE
  5
2c5
100
AcDbEntity
  8
Layer_1
 62
7
100
AcDbSpline
 70
8
 71
3
 72
8
 73
4
 74
0
 40
0
 40
0
 40
0
 40
0
 40
1
 40
1
 40
1
 40
1
 10
51.762932
 20
182.138517
 30
0.0
 10
51.842857
 20
182.306639
 30
0.0
 10
51.882820
 20
182.554685
 30
0.0
 10
51.882820
 20
182.882658
 30
0.0
  0
LWPOLYLINE
  5
2c6
100
AcDbEntity
  8
Layer_1
 62
7
100
AcDbPolyline
 90
1
 70
1
 10
51.944825
 20
181.493595
 30
0.0
  0
LWPOLYLINE
  5
2c7
100
AcDbEntity
  8
Layer_1
 62
7
100
AcDbPolyline
 90
2
 70
0
 10
51.882820
 20
182.882658
 30
0.0
 10
51.882820
 20
183.155509
 30
0.0
  0
SPLINE
  5
2c8
100
AcDbEntity
  8
Layer_1
 62
7
100
AcDbSpline
 70
8
 71
3
 72
8
 73
4
 74
0
 40
0
 40
0
 40
0
 40
0
 40
1
 40
1
 40
1
 40
1
 10
55.520841
 20
180.960296
 30
0.0
 10
55.311379
 20
180.916198
 30
0.0
 10
55.123966
 20
180.894150
 30
0.0
 10
54.958601
 20
180.894150
 30
0.0
  0
SPLINE
  5
2c9
100
AcDbEntity
  8
Layer_1
 62
7
100
AcDbSpline
 70
8
 71
3
 72
8
 73
4
 74
0
 40
0
 40
0
 40
0
 40
0
 40
1
 40
1
 40
1
 40
1
 10
54.958601
 20
180.894150
 30
0.0
 10
54.688506
 20
180.894150
 30
0.0
 10
54.479044
 20
180.936869
 30
0.0
 10
54.330216
 20
181.022306
 30
0.0
  0
SPLINE
  5
2ca
100
AcDbEntity
  8
Layer_1
 62
7
100
AcDbSpline
 70
8
 71
3
 72
8
 73
4
 74
0
 40
0
 40
0
 40
0
 40
0
 40
1
 40
1
 40
1
 40
1
 10
54.330216
 20
181.022306
 30
0.0
 10
54.181388
 20
181.107745
 30
0.0
 10
54.076657
 20
181.219367
 30
0.0
 10
54.016023
 20
181.357171
 30
0.0
  0
SPLINE
  5
2cb
100
AcDbEntity
  8
Layer_1
 62
7
100
AcDbSpline
 70
8
 71
3
 72
8
 73
4
 74
0
 40
0
 40
0
 40
0
 40
0
 40
1
 40
1
 40
1
 40
1
 10
54.016023
 20
181.357171
 30
0.0
 10
53.955389
 20
181.497730
 30
0.0
 10
53.925072
 20
181.791251
 30
0.0
 10
53.925072
 20
182.237736
 30
0.0
  0
LWPOLYLINE
  5
2cc
100
AcDbEntity
  8
Layer_1
 62
7
100
AcDbPolyline
 90
2
 70
0
 10
55.413354
 20
181.617619
 30
0.0
 10
55.520841
 20
180.960296
 30
0.0
  0
SPLINE
  5
2cd
100
AcDbEntity
  8
Layer_1
 62
7
100
AcDbSpline
 70
8
 71
3
 72
8
 73
4
 74
0
 40
0
 40
0
 40
0
 40
0
 40
1
 40
1
 40
1
 40
1
 10
54.665080
 20
182.196395
 30
0.0
 10
54.665080
 20
181.984178
 30
0.0
 10
54.677482
 20
181.847752
 30
0.0
 10
54.702286
 20
181.787119
 30
0.0
  0
SPLINE
  5
2ce
100
AcDbEntity
  8
Layer_1
 62
7
100
AcDbSpline
 70
8
 71
3
 72
8
 73
4
 74
0
 40
0
 40
0
 40
0
 40
0
 40
1
 40
1
 40
1
 40
1
 10
54.702286
 20
181.787119
 30
0.0
 10
54.729847
 20
181.726485
 30
0.0
 10
54.772566
 20
181.678253
 30
0.0
 10
54.830445
 20
181.642423
 30
0.0
  0
SPLINE
  5
2cf
100
AcDbEntity
  8
Layer_1
 62
7
100
AcDbSpline
 70
8
 71
3
 72
8
 73
4
 74
0
 40
0
 40
0
 40
0
 40
0
 40
1
 40
1
 40
1
 40
1
 10
54.830445
 20
181.642423
 30
0.0
 10
54.891078
 20
181.606595
 30
0.0
 10
54.976517
 20
181.588681
 30
0.0
 10
55.086760
 20
181.588681
 30
0.0
  0
SPLINE
  5
2d0
100
AcDbEntity
  8
Layer_1
 62
7
100
AcDbSpline
 70
8
 71
3
 72
8
 73
4
 74
0
 40
0
 40
0
 40
0
 40
0
 40
1
 40
1
 40
1
 40
1
 10
55.086760
 20
181.588681
 30
0.0
 10
55.169442
 20
181.588681
 30
0.0
 10
55.278307
 20
181.598327
 30
0.0
 10
55.413354
 20
181.617619
 30
0.0
  0
LWPOLYLINE
  5
2d1
100
AcDbEntity
  8
Layer_1
 62
7
100
AcDbPolyline
 90
12
 70
0
 10
53.925072
 20
182.237736
 30
0.0
 10
53.925072
 20
184.763681
 30
0.0
 10
53.379369
 20
184.763681
 30
0.0
 10
53.379369
 20
185.342457
 30
0.0
 10
53.925072
 20
185.342457
 30
0.0
 10
53.925072
 20
186.429728
 30
0.0
 10
54.665080
 20
186.876212
 30
0.0
 10
54.665080
 20
185.342457
 30
0.0
 10
55.413354
 20
185.342457
 30
0.0
 10
55.413354
 20
184.763681
 30
0.0
 10
54.665080
 20
184.763681
 30
0.0
 10
54.665080
 20
182.196395
 30
0.0
  0
LWPOLYLINE
  5
2d2
100
AcDbEntity
  8
Layer_1
 62
7
100
AcDbPolyline
 90
1
 70
1
 10
55.413354
 20
181.617619
 30
0.0
  0
SPLINE
  5
2d3
100
AcDbEntity
  8
Layer_1
 62
7
100
AcDbSpline
 70
8
 71
3
 72
8
 73
4
 74
0
 40
0
 40
0
 40
0
 40
0
 40
1
 40
1
 40
1
 40
1
 10
59.915406
 20
182.270809
 30
0.0
 10
59.794138
 20
181.821569
 30
0.0
 10
59.569518
 20
181.472926
 30
0.0
 10
59.241544
 20
181.224879
 30
0.0
  0
SPLINE
  5
2d4
100
AcDbEntity
  8
Layer_1
 62
7
100
AcDbSpline
 70
8
 71
3
 72
8
 73
4
 74
0
 40
0
 40
0
 40
0
 40
0
 40
1
 40
1
 40
1
 40
1
 10
59.241544
 20
181.224879
 30
0.0
 10
58.913571
 20
180.976832
 30
0.0
 10
58.494648
 20
180.852809
 30
0.0
 10
57.984773
 20
180.852809
 30
0.0
  0
SPLINE
  5
2d5
100
AcDbEntity
  8
Layer_1
 62
7
100
AcDbSpline
 70
8
 71
3
 72
8
 73
4
 74
0
 40
0
 40
0
 40
0
 40
0
 40
1
 40
1
 40
1
 40
1
 10
57.984773
 20
180.852809
 30
0.0
 10
57.342608
 20
180.852809
 30
0.0
 10
56.832734
 20
181.049868
 30
0.0
 10
56.455150
 20
181.443986
 30
0.0
  0
SPLINE
  5
2d6
100
AcDbEntity
  8
Layer_1
 62
7
100
AcDbSpline
 70
8
 71
3
 72
8
 73
4
 74
0
 40
0
 40
0
 40
0
 40
0
 40
1
 40
1
 40
1
 40
1
 10
56.455150
 20
181.443986
 30
0.0
 10
56.080324
 20
181.840861
 30
0.0
 10
55.892911
 20
182.396211
 30
0.0
 10
55.892911
 20
183.110035
 30
0.0
  0
SPLINE
  5
2d7
100
AcDbEntity
  8
Layer_1
 62
7
100
AcDbSpline
 70
8
 71
3
 72
8
 73
4
 74
0
 40
0
 40
0
 40
0
 40
0
 40
1
 40
1
 40
1
 40
1
 10
55.892911
 20
183.110035
 30
0.0
 10
55.892911
 20
183.848664
 30
0.0
 10
56.083080
 20
184.421928
 30
0.0
 10
56.463419
 20
184.829827
 30
0.0
  0
SPLINE
  5
2d8
100
AcDbEntity
  8
Layer_1
 62
7
100
AcDbSpline
 70
8
 71
3
 72
8
 73
4
 74
0
 40
0
 40
0
 40
0
 40
0
 40
1
 40
1
 40
1
 40
1
 10
56.463419
 20
184.829827
 30
0.0
 10
56.843757
 20
185.237726
 30
0.0
 10
57.337095
 20
185.441676
 30
0.0
 10
57.943432
 20
185.441676
 30
0.0
  0
SPLINE
  5
2d9
100
AcDbEntity
  8
Layer_1
 62
7
100
AcDbSpline
 70
8
 71
3
 72
8
 73
4
 74
0
 40
0
 40
0
 40
0
 40
0
 40
1
 40
1
 40
1
 40
1
 10
57.943432
 20
185.441676
 30
0.0
 10
58.530477
 20
185.441676
 30
0.0
 10
59.010034
 20
185.241860
 30
0.0
 10
59.382104
 20
184.842228
 30
0.0
  0
SPLINE
  5
2da
100
AcDbEntity
  8
Layer_1
 62
7
100
AcDbSpline
 70
8
 71
3
 72
8
 73
4
 74
0
 40
0
 40
0
 40
0
 40
0
 40
1
 40
1
 40
1
 40
1
 10
59.382104
 20
184.842228
 30
0.0
 10
59.754175
 20
184.442598
 30
0.0
 10
59.940210
 20
183.880358
 30
0.0
 10
59.940210
 20
183.155509
 30
0.0
  0
SPLINE
  5
2db
100
AcDbEntity
  8
Layer_1
 62
7
100
AcDbSpline
 70
8
 71
3
 72
8
 73
4
 74
0
 40
0
 40
0
 40
0
 40
0
 40
1
 40
1
 40
1
 40
1
 10
59.940210
 20
183.155509
 30
0.0
 10
59.940210
 20
183.111412
 30
0.0
 10
59.938835
 20
183.045266
 30
0.0
 10
59.936083
 20
182.957072
 30
0.0
  0
LWPOLYLINE
  5
2dc
100
AcDbEntity
  8
Layer_1
 62
7
100
AcDbPolyline
 90
2
 70
0
 10
59.146460
 20
182.365895
 30
0.0
 10
59.915406
 20
182.270809
 30
0.0
  0
SPLINE
  5
2dd
100
AcDbEntity
  8
Layer_1
 62
7
100
AcDbSpline
 70
8
 71
3
 72
8
 73
4
 74
0
 40
0
 40
0
 40
0
 40
0
 40
1
 40
1
 40
1
 40
1
 10
56.661864
 20
182.957072
 30
0.0
 10
56.689425
 20
182.474759
 30
0.0
 10
56.825851
 20
182.105445
 30
0.0
 10
57.071143
 20
181.849129
 30
0.0
  0
SPLINE
  5
2de
100
AcDbEntity
  8
Layer_1
 62
7
100
AcDbSpline
 70
8
 71
3
 72
8
 73
4
 74
0
 40
0
 40
0
 40
0
 40
0
 40
1
 40
1
 40
1
 40
1
 10
57.071143
 20
181.849129
 30
0.0
 10
57.316433
 20
181.592815
 30
0.0
 10
57.622357
 20
181.464658
 30
0.0
 10
57.988916
 20
181.464658
 30
0.0
  0
SPLINE
  5
2df
100
AcDbEntity
  8
Layer_1
 62
7
100
AcDbSpline
 70
8
 71
3
 72
8
 73
4
 74
0
 40
0
 40
0
 40
0
 40
0
 40
1
 40
1
 40
1
 40
1
 10
57.988916
 20
181.464658
 30
0.0
 10
58.261767
 20
181.464658
 30
0.0
 10
58.494655
 20
181.536316
 30
0.0
 10
58.687580
 20
181.679632
 30
0.0
  0
SPLINE
  5
2e0
100
AcDbEntity
  8
Layer_1
 62
7
100
AcDbSpline
 70
8
 71
3
 72
8
 73
4
 74
0
 40
0
 40
0
 40
0
 40
0
 40
1
 40
1
 40
1
 40
1
 10
58.687580
 20
181.679632
 30
0.0
 10
58.880506
 20
181.822948
 30
0.0
 10
59.033468
 20
182.051702
 30
0.0
 10
59.146468
 20
182.365895
 30
0.0
  0
LWPOLYLINE
  5
2e1
100
AcDbEntity
  8
Layer_1
 62
7
100
AcDbPolyline
 90
2
 70
0
 10
59.936083
 20
182.957072
 30
0.0
 10
56.661864
 20
182.957072
 30
0.0
  0
LWPOLYLINE
  5
2e2
100
AcDbEntity
  8
Layer_1
 62
7
100
AcDbPolyline
 90
1
 70
1
 10
59.146468
 20
182.365895
 30
0.0
  0
SPLINE
  5
2e3
100
AcDbEntity
  8
Layer_1
 62
7
100
AcDbSpline
 70
8
 71
3
 72
8
 73
4
 74
0
 40
0
 40
0
 40
0
 40
0
 40
1
 40
1
 40
1
 40
1
 10
59.154729
 20
183.568921
 30
0.0
 10
59.121656
 20
183.938235
 30
0.0
 10
59.027949
 20
184.215221
 30
0.0
 10
58.873609
 20
184.399879
 30
0.0
  0
SPLINE
  5
2e4
100
AcDbEntity
  8
Layer_1
 62
7
100
AcDbSpline
 70
8
 71
3
 72
8
 73
4
 74
0
 40
0
 40
0
 40
0
 40
0
 40
1
 40
1
 40
1
 40
1
 10
58.873609
 20
184.399879
 30
0.0
 10
58.636586
 20
184.686511
 30
0.0
 10
58.329283
 20
184.829827
 30
0.0
 10
57.951700
 20
184.829827
 30
0.0
  0
SPLINE
  5
2e5
100
AcDbEntity
  8
Layer_1
 62
7
100
AcDbSpline
 70
8
 71
3
 72
8
 73
4
 74
0
 40
0
 40
0
 40
0
 40
0
 40
1
 40
1
 40
1
 40
1
 10
57.951700
 20
184.829827
 30
0.0
 10
57.609946
 20
184.829827
 30
0.0
 10
57.321937
 20
184.715449
 30
0.0
 10
57.087671
 20
184.486694
 30
0.0
  0
SPLINE
  5
2e6
100
AcDbEntity
  8
Layer_1
 62
7
100
AcDbSpline
 70
8
 71
3
 72
8
 73
4
 74
0
 40
0
 40
0
 40
0
 40
0
 40
1
 40
1
 40
1
 40
1
 10
57.087671
 20
184.486694
 30
0.0
 10
56.856161
 20
184.257941
 30
0.0
 10
56.728003
 20
183.952016
 30
0.0
 10
56.703197
 20
183.568921
 30
0.0
  0
LWPOLYLINE
  5
2e7
100
AcDbEntity
  8
Layer_1
 62
7
100
AcDbPolyline
 90
2
 70
0
 10
56.703197
 20
183.568921
 30
0.0
 10
59.154729
 20
183.568921
 30
0.0
  0
LWPOLYLINE
  5
2e8
100
AcDbEntity
  8
Layer_1
 62
7
100
AcDbPolyline
 90
1
 70
1
 10
56.703197
 20
183.568921
 30
0.0
  0
SPLINE
  5
2e9
100
AcDbEntity
  8
Layer_1
 62
7
100
AcDbSpline
 70
8
 71
3
 72
8
 73
4
 74
0
 40
0
 40
0
 40
0
 40
0
 40
1
 40
1
 40
1
 40
1
 10
61.511174
 20
184.676863
 30
0.0
 10
61.682051
 20
184.988301
 30
0.0
 10
61.839147
 20
185.193629
 30
0.0
 10
61.982463
 20
185.292848
 30
0.0
  0
SPLINE
  5
2ea
100
AcDbEntity
  8
Layer_1
 62
7
100
AcDbSpline
 70
8
 71
3
 72
8
 73
4
 74
0
 40
0
 40
0
 40
0
 40
0
 40
1
 40
1
 40
1
 40
1
 10
61.982463
 20
185.292848
 30
0.0
 10
62.128534
 20
185.392066
 30
0.0
 10
62.288387
 20
185.441676
 30
0.0
 10
62.462020
 20
185.441676
 30
0.0
  0
SPLINE
  5
2eb
100
AcDbEntity
  8
Layer_1
 62
7
100
AcDbSpline
 70
8
 71
3
 72
8
 73
4
 74
0
 40
0
 40
0
 40
0
 40
0
 40
1
 40
1
 40
1
 40
1
 10
62.462020
 20
185.441676
 30
0.0
 10
62.712822
 20
185.441676
 30
0.0
 10
62.967759
 20
185.361750
 30
0.0
 10
63.226830
 20
185.201897
 30
0.0
  0
LWPOLYLINE
  5
2ec
100
AcDbEntity
  8
Layer_1
 62
7
100
AcDbPolyline
 90
4
 70
0
 10
60.841447
 20
180.952027
 30
0.0
 10
60.841447
 20
185.342457
 30
0.0
 10
61.511174
 20
185.342457
 30
0.0
 10
61.511174
 20
184.676863
 30
0.0
  0
SPLINE
  5
2ed
100
AcDbEntity
  8
Layer_1
 62
7
100
AcDbSpline
 70
8
 71
3
 72
8
 73
4
 74
0
 40
0
 40
0
 40
0
 40
0
 40
1
 40
1
 40
1
 40
1
 10
62.970515
 20
184.511499
 30
0.0
 10
62.788614
 20
184.618987
 30
0.0
 10
62.606713
 20
184.672731
 30
0.0
 10
62.424812
 20
184.672731
 30
0.0
  0
SPLINE
  5
2ee
100
AcDbEntity
  8
Layer_1
 62
7
100
AcDbSpline
 70
8
 71
3
 72
8
 73
4
 74
0
 40
0
 40
0
 40
0
 40
0
 40
1
 40
1
 40
1
 40
1
 10
62.424812
 20
184.672731
 30
0.0
 10
62.262204
 20
184.672731
 30
0.0
 10
62.116132
 20
184.623121
 30
0.0
 10
61.986596
 20
184.523902
 30
0.0
  0
SPLINE
  5
2ef
100
AcDbEntity
  8
Layer_1
 62
7
100
AcDbSpline
 70
8
 71
3
 72
8
 73
4
 74
0
 40
0
 40
0
 40
0
 40
0
 40
1
 40
1
 40
1
 40
1
 10
61.986596
 20
184.523902
 30
0.0
 10
61.857061
 20
184.427439
 30
0.0
 10
61.764733
 20
184.292391
 30
0.0
 10
61.709611
 20
184.118759
 30
0.0
  0
SPLINE
  5
2f0
100
AcDbEntity
  8
Layer_1
 62
7
100
AcDbSpline
 70
8
 71
3
 72
8
 73
4
 74
0
 40
0
 40
0
 40
0
 40
0
 40
1
 40
1
 40
1
 40
1
 10
61.709611
 20
184.118759
 30
0.0
 10
61.626929
 20
183.854176
 30
0.0
 10
61.585588
 20
183.564788
 30
0.0
 10
61.585588
 20
183.250595
 30
0.0
  0
LWPOLYLINE
  5
2f1
100
AcDbEntity
  8
Layer_1
 62
7
100
AcDbPolyline
 90
2
 70
0
 10
63.226830
 20
185.201897
 30
0.0
 10
62.970515
 20
184.511499
 30
0.0
  0
LWPOLYLINE
  5
2f2
100
AcDbEntity
  8
Layer_1
 62
7
100
AcDbPolyline
 90
3
 70
0
 10
61.585588
 20
183.250595
 30
0.0
 10
61.585588
 20
180.952027
 30
0.0
 10
60.841447
 20
180.952027
 30
0.0
  0
LWPOLYLINE
  5
2f3
100
AcDbEntity
  8
Layer_1
 62
7
100
AcDbPolyline
 90
4
 70
1
 10
63.673314
 20
186.156876
 30
0.0
 10
63.673314
 20
187.012639
 30
0.0
 10
64.417455
 20
187.012639
 30
0.0
 10
64.417455
 20
186.156876
 30
0.0
  0
LWPOLYLINE
  5
2f4
100
AcDbEntity
  8
Layer_1
 62
7
100
AcDbPolyline
 90
4
 70
1
 10
63.673314
 20
180.952027
 30
0.0
 10
63.673314
 20
185.342457
 30
0.0
 10
64.417455
 20
185.342457
 30
0.0
 10
64.417455
 20
180.952027
 30
0.0
  0
SPLINE
  5
2f5
100
AcDbEntity
  8
Layer_1
 62
7
100
AcDbSpline
 70
8
 71
3
 72
8
 73
4
 74
0
 40
0
 40
0
 40
0
 40
0
 40
1
 40
1
 40
1
 40
1
 10
66.219929
 20
184.718204
 30
0.0
 10
66.542391
 20
185.200519
 30
0.0
 10
67.008168
 20
185.441676
 30
0.0
 10
67.617260
 20
185.441676
 30
0.0
  0
SPLINE
  5
2f6
100
AcDbEntity
  8
Layer_1
 62
7
100
AcDbSpline
 70
8
 71
3
 72
8
 73
4
 74
0
 40
0
 40
0
 40
0
 40
0
 40
1
 40
1
 40
1
 40
1
 10
67.617260
 20
185.441676
 30
0.0
 10
67.881843
 20
185.441676
 30
0.0
 10
68.124378
 20
185.393444
 30
0.0
 10
68.344864
 20
185.296980
 30
0.0
  0
SPLINE
  5
2f7
100
AcDbEntity
  8
Layer_1
 62
7
100
AcDbSpline
 70
8
 71
3
 72
8
 73
4
 74
0
 40
0
 40
0
 40
0
 40
0
 40
1
 40
1
 40
1
 40
1
 10
68.344864
 20
185.296980
 30
0.0
 10
68.568107
 20
185.203274
 30
0.0
 10
68.734850
 20
185.079250
 30
0.0
 10
68.845093
 20
184.924910
 30
0.0
  0
SPLINE
  5
2f8
100
AcDbEntity
  8
Layer_1
 62
7
100
AcDbSpline
 70
8
 71
3
 72
8
 73
4
 74
0
 40
0
 40
0
 40
0
 40
0
 40
1
 40
1
 40
1
 40
1
 10
68.845093
 20
184.924910
 30
0.0
 10
68.955336
 20
184.770570
 30
0.0
 10
69.032506
 20
184.587291
 30
0.0
 10
69.076603
 20
184.375074
 30
0.0
  0
SPLINE
  5
2f9
100
AcDbEntity
  8
Layer_1
 62
7
100
AcDbSpline
 70
8
 71
3
 72
8
 73
4
 74
0
 40
0
 40
0
 40
0
 40
0
 40
1
 40
1
 40
1
 40
1
 10
69.076603
 20
184.375074
 30
0.0
 10
69.104164
 20
184.237270
 30
0.0
 10
69.117945
 20
183.996113
 30
0.0
 10
69.117945
 20
183.651603
 30
0.0
  0
LWPOLYLINE
  5
2fa
100
AcDbEntity
  8
Layer_1
 62
7
100
AcDbPolyline
 90
4
 70
0
 10
65.550202
 20
180.952027
 30
0.0
 10
65.550202
 20
185.342457
 30
0.0
 10
66.219929
 20
185.342457
 30
0.0
 10
66.219929
 20
184.718204
 30
0.0
  0
SPLINE
  5
2fb
100
AcDbEntity
  8
Layer_1
 62
7
100
AcDbSpline
 70
8
 71
3
 72
8
 73
4
 74
0
 40
0
 40
0
 40
0
 40
0
 40
1
 40
1
 40
1
 40
1
 10
68.373804
 20
183.622665
 30
0.0
 10
68.373804
 20
183.925834
 30
0.0
 10
68.344865
 20
184.151832
 30
0.0
 10
68.286986
 20
184.300660
 30
0.0
  0
SPLINE
  5
2fc
100
AcDbEntity
  8
Layer_1
 62
7
100
AcDbSpline
 70
8
 71
3
 72
8
 73
4
 74
0
 40
0
 40
0
 40
0
 40
0
 40
1
 40
1
 40
1
 40
1
 10
68.286986
 20
184.300660
 30
0.0
 10
68.229110
 20
184.452244
 30
0.0
 10
68.125757
 20
184.572132
 30
0.0
 10
67.976929
 20
184.660327
 30
0.0
  0
SPLINE
  5
2fd
100
AcDbEntity
  8
Layer_1
 62
7
100
AcDbSpline
 70
8
 71
3
 72
8
 73
4
 74
0
 40
0
 40
0
 40
0
 40
0
 40
1
 40
1
 40
1
 40
1
 10
67.976929
 20
184.660327
 30
0.0
 10
67.830856
 20
184.751278
 30
0.0
 10
67.658601
 20
184.796754
 30
0.0
 10
67.460163
 20
184.796754
 30
0.0
  0
SPLINE
  5
2fe
100
AcDbEntity
  8
Layer_1
 62
7
100
AcDbSpline
 70
8
 71
3
 72
8
 73
4
 74
0
 40
0
 40
0
 40
0
 40
0
 40
1
 40
1
 40
1
 40
1
 10
67.460163
 20
184.796754
 30
0.0
 10
67.143215
 20
184.796754
 30
0.0
 10
66.868986
 20
184.696157
 30
0.0
 10
66.637476
 20
184.494962
 30
0.0
  0
SPLINE
  5
2ff
100
AcDbEntity
  8
Layer_1
 62
7
100
AcDbSpline
 70
8
 71
3
 72
8
 73
4
 74
0
 40
0
 40
0
 40
0
 40
0
 40
1
 40
1
 40
1
 40
1
 10
66.637476
 20
184.494962
 30
0.0
 10
66.408721
 20
184.293770
 30
0.0
 10
66.294343
 20
183.912053
 30
0.0
 10
66.294343
 20
183.349814
 30
0.0
  0
LWPOLYLINE
  5
300
100
AcDbEntity
  8
Layer_1
 62
7
100
AcDbPolyline
 90
4
 70
0
 10
69.117945
 20
183.651603
 30
0.0
 10
69.117945
 20
180.952027
 30
0.0
 10
68.373804
 20
180.952027
 30
0.0
 10
68.373804
 20
183.622665
 30
0.0
  0
LWPOLYLINE
  5
301
100
AcDbEntity
  8
Layer_1
 62
7
100
AcDbPolyline
 90
3
 70
0
 10
66.294343
 20
183.349814
 30
0.0
 10
66.294343
 20
180.952027
 30
0.0
 10
65.550202
 20
180.952027
 30
0.0
  0
SPLINE
  5
302
100
AcDbEntity
  8
Layer_1
 62
7
100
AcDbSpline
 70
8
 71
3
 72
8
 73
4
 74
0
 40
0
 40
0
 40
0
 40
0
 40
1
 40
1
 40
1
 40
1
 10
70.846005
 20
180.480738
 30
0.0
 10
70.876320
 20
180.257495
 30
0.0
 10
70.960380
 20
180.094887
 30
0.0
 10
71.098184
 20
179.992913
 30
0.0
  0
SPLINE
  5
303
100
AcDbEntity
  8
Layer_1
 62
7
100
AcDbSpline
 70
8
 71
3
 72
8
 73
4
 74
0
 40
0
 40
0
 40
0
 40
0
 40
1
 40
1
 40
1
 40
1
 10
71.098184
 20
179.992913
 30
0.0
 10
71.282842
 20
179.855109
 30
0.0
 10
71.535024
 20
179.786207
 30
0.0
 10
71.854728
 20
179.786207
 30
0.0
  0
SPLINE
  5
304
100
AcDbEntity
  8
Layer_1
 62
7
100
AcDbSpline
 70
8
 71
3
 72
8
 73
4
 74
0
 40
0
 40
0
 40
0
 40
0
 40
1
 40
1
 40
1
 40
1
 10
71.854728
 20
179.786207
 30
0.0
 10
72.199237
 20
179.786207
 30
0.0
 10
72.465198
 20
179.855109
 30
0.0
 10
72.652611
 20
179.992913
 30
0.0
  0
SPLINE
  5
305
100
AcDbEntity
  8
Layer_1
 62
7
100
AcDbSpline
 70
8
 71
3
 72
8
 73
4
 74
0
 40
0
 40
0
 40
0
 40
0
 40
1
 40
1
 40
1
 40
1
 10
72.652611
 20
179.992913
 30
0.0
 10
72.840024
 20
180.130717
 30
0.0
 10
72.966804
 20
180.323642
 30
0.0
 10
73.032950
 20
180.571689
 30
0.0
  0
SPLINE
  5
306
100
AcDbEntity
  8
Layer_1
 62
7
100
AcDbSpline
 70
8
 71
3
 72
8
 73
4
 74
0
 40
0
 40
0
 40
0
 40
0
 40
1
 40
1
 40
1
 40
1
 10
73.032950
 20
180.571689
 30
0.0
 10
73.071535
 20
180.723272
 30
0.0
 10
73.089450
 20
181.041599
 30
0.0
 10
73.086695
 20
181.526668
 30
0.0
  0
SPLINE
  5
307
100
AcDbEntity
  8
Layer_1
 62
7
100
AcDbSpline
 70
8
 71
3
 72
8
 73
4
 74
0
 40
0
 40
0
 40
0
 40
0
 40
1
 40
1
 40
1
 40
1
 10
73.086695
 20
181.526668
 30
0.0
 10
72.761478
 20
181.143574
 30
0.0
 10
72.356334
 20
180.952027
 30
0.0
 10
71.871265
 20
180.952027
 30
0.0
  0
SPLINE
  5
308
100
AcDbEntity
  8
Layer_1
 62
7
100
AcDbSpline
 70
8
 71
3
 72
8
 73
4
 74
0
 40
0
 40
0
 40
0
 40
0
 40
1
 40
1
 40
1
 40
1
 10
71.871265
 20
180.952027
 30
0.0
 10
71.267683
 20
180.952027
 30
0.0
 10
70.800528
 20
181.169757
 30
0.0
 10
70.469799
 20
181.605218
 30
0.0
  0
SPLINE
  5
309
100
AcDbEntity
  8
Layer_1
 62
7
100
AcDbSpline
 70
8
 71
3
 72
8
 73
4
 74
0
 40
0
 40
0
 40
0
 40
0
 40
1
 40
1
 40
1
 40
1
 10
70.469799
 20
181.605218
 30
0.0
 10
70.139070
 20
182.040678
 30
0.0
 10
69.973705
 20
182.562954
 30
0.0
 10
69.973705
 20
183.172046
 30
0.0
  0
SPLINE
  5
30a
100
AcDbEntity
  8
Layer_1
 62
7
100
AcDbSpline
 70
8
 71
3
 72
8
 73
4
 74
0
 40
0
 40
0
 40
0
 40
0
 40
1
 40
1
 40
1
 40
1
 10
69.973705
 20
183.172046
 30
0.0
 10
69.973705
 20
183.590969
 30
0.0
 10
70.049498
 20
183.976820
 30
0.0
 10
70.201083
 20
184.329598
 30
0.0
  0
SPLINE
  5
30b
100
AcDbEntity
  8
Layer_1
 62
7
100
AcDbSpline
 70
8
 71
3
 72
8
 73
4
 74
0
 40
0
 40
0
 40
0
 40
0
 40
1
 40
1
 40
1
 40
1
 10
70.201083
 20
184.329598
 30
0.0
 10
70.352666
 20
184.685132
 30
0.0
 10
70.571774
 20
184.959362
 30
0.0
 10
70.858406
 20
185.152288
 30
0.0
  0
SPLINE
  5
30c
100
AcDbEntity
  8
Layer_1
 62
7
100
AcDbSpline
 70
8
 71
3
 72
8
 73
4
 74
0
 40
0
 40
0
 40
0
 40
0
 40
1
 40
1
 40
1
 40
1
 10
70.858406
 20
185.152288
 30
0.0
 10
71.147794
 20
185.345213
 30
0.0
 10
71.486792
 20
185.441676
 30
0.0
 10
71.875398
 20
185.441676
 30
0.0
  0
SPLINE
  5
30d
100
AcDbEntity
  8
Layer_1
 62
7
100
AcDbSpline
 70
8
 71
3
 72
8
 73
4
 74
0
 40
0
 40
0
 40
0
 40
0
 40
1
 40
1
 40
1
 40
1
 10
71.875398
 20
185.441676
 30
0.0
 10
72.393540
 20
185.441676
 30
0.0
 10
72.820732
 20
185.232214
 30
0.0
 10
73.156973
 20
184.813290
 30
0.0
  0
LWPOLYLINE
  5
30e
100
AcDbEntity
  8
Layer_1
 62
7
100
AcDbPolyline
 90
2
 70
0
 10
70.122533
 20
180.588225
 30
0.0
 10
70.846005
 20
180.480738
 30
0.0
  0
SPLINE
  5
30f
100
AcDbEntity
  8
Layer_1
 62
7
100
AcDbSpline
 70
8
 71
3
 72
8
 73
4
 74
0
 40
0
 40
0
 40
0
 40
0
 40
1
 40
1
 40
1
 40
1
 10
73.843236
 20
181.547340
 30
0.0
 10
73.843236
 20
180.863833
 30
0.0
 10
73.772957
 20
180.380141
 30
0.0
 10
73.632398
 20
180.096264
 30
0.0
  0
SPLINE
  5
310
100
AcDbEntity
  8
Layer_1
 62
7
100
AcDbSpline
 70
8
 71
3
 72
8
 73
4
 74
0
 40
0
 40
0
 40
0
 40
0
 40
1
 40
1
 40
1
 40
1
 10
73.632398
 20
180.096264
 30
0.0
 10
73.494594
 20
179.809632
 30
0.0
 10
73.274108
 20
179.583634
 30
0.0
 10
72.970939
 20
179.418270
 30
0.0
  0
SPLINE
  5
311
100
AcDbEntity
  8
Layer_1
 62
7
100
AcDbSpline
 70
8
 71
3
 72
8
 73
4
 74
0
 40
0
 40
0
 40
0
 40
0
 40
1
 40
1
 40
1
 40
1
 10
72.970939
 20
179.418270
 30
0.0
 10
72.670526
 20
179.252905
 30
0.0
 10
72.299833
 20
179.170223
 30
0.0
 10
71.858861
 20
179.170223
 30
0.0
  0
SPLINE
  5
312
100
AcDbEntity
  8
Layer_1
 62
7
100
AcDbSpline
 70
8
 71
3
 72
8
 73
4
 74
0
 40
0
 40
0
 40
0
 40
0
 40
1
 40
1
 40
1
 40
1
 10
71.858861
 20
179.170223
 30
0.0
 10
71.335207
 20
179.170223
 30
0.0
 10
70.912149
 20
179.288734
 30
0.0
 10
70.589689
 20
179.525757
 30
0.0
  0
SPLINE
  5
313
100
AcDbEntity
  8
Layer_1
 62
7
100
AcDbSpline
 70
8
 71
3
 72
8
 73
4
 74
0
 40
0
 40
0
 40
0
 40
0
 40
1
 40
1
 40
1
 40
1
 10
70.589689
 20
179.525757
 30
0.0
 10
70.267228
 20
179.760024
 30
0.0
 10
70.111509
 20
180.114180
 30
0.0
 10
70.122533
 20
180.588225
 30
0.0
  0
LWPOLYLINE
  5
314
100
AcDbEntity
  8
Layer_1
 62
7
100
AcDbPolyline
 90
4
 70
0
 10
73.156973
 20
184.813290
 30
0.0
 10
73.156973
 20
185.342457
 30
0.0
 10
73.843236
 20
185.342457
 30
0.0
 10
73.843236
 20
181.547340
 30
0.0
  0
SPLINE
  5
315
100
AcDbEntity
  8
Layer_1
 62
7
100
AcDbSpline
 70
8
 71
3
 72
8
 73
4
 74
0
 40
0
 40
0
 40
0
 40
0
 40
1
 40
1
 40
1
 40
1
 10
70.738518
 20
183.225790
 30
0.0
 10
70.738518
 20
182.649770
 30
0.0
 10
70.852894
 20
182.229468
 30
0.0
 10
71.081648
 20
181.964884
 30
0.0
  0
SPLINE
  5
316
100
AcDbEntity
  8
Layer_1
 62
7
100
AcDbSpline
 70
8
 71
3
 72
8
 73
4
 74
0
 40
0
 40
0
 40
0
 40
0
 40
1
 40
1
 40
1
 40
1
 10
71.081648
 20
181.964884
 30
0.0
 10
71.310403
 20
181.700301
 30
0.0
 10
71.597035
 20
181.568009
 30
0.0
 10
71.941544
 20
181.568009
 30
0.0
  0
SPLINE
  5
317
100
AcDbEntity
  8
Layer_1
 62
7
100
AcDbSpline
 70
8
 71
3
 72
8
 73
4
 74
0
 40
0
 40
0
 40
0
 40
0
 40
1
 40
1
 40
1
 40
1
 10
71.941544
 20
181.568009
 30
0.0
 10
72.283297
 20
181.568009
 30
0.0
 10
72.569929
 20
181.698923
 30
0.0
 10
72.801439
 20
181.960751
 30
0.0
  0
SPLINE
  5
318
100
AcDbEntity
  8
Layer_1
 62
7
100
AcDbSpline
 70
8
 71
3
 72
8
 73
4
 74
0
 40
0
 40
0
 40
0
 40
0
 40
1
 40
1
 40
1
 40
1
 10
72.801439
 20
181.960751
 30
0.0
 10
73.032950
 20
182.225335
 30
0.0
 10
73.148705
 20
182.638746
 30
0.0
 10
73.148705
 20
183.200986
 30
0.0
  0
SPLINE
  5
319
100
AcDbEntity
  8
Layer_1
 62
7
100
AcDbSpline
 70
8
 71
3
 72
8
 73
4
 74
0
 40
0
 40
0
 40
0
 40
0
 40
1
 40
1
 40
1
 40
1
 10
73.148705
 20
183.200986
 30
0.0
 10
73.148705
 20
183.738420
 30
0.0
 10
73.028816
 20
184.143563
 30
0.0
 10
72.789038
 20
184.416415
 30
0.0
  0
SPLINE
  5
31a
100
AcDbEntity
  8
Layer_1
 62
7
100
AcDbSpline
 70
8
 71
3
 72
8
 73
4
 74
0
 40
0
 40
0
 40
0
 40
0
 40
1
 40
1
 40
1
 40
1
 10
72.789038
 20
184.416415
 30
0.0
 10
72.552016
 20
184.689266
 30
0.0
 10
72.265384
 20
184.825691
 30
0.0
 10
71.929143
 20
184.825691
 30
0.0
  0
SPLINE
  5
31b
100
AcDbEntity
  8
Layer_1
 62
7
100
AcDbSpline
 70
8
 71
3
 72
8
 73
4
 74
0
 40
0
 40
0
 40
0
 40
0
 40
1
 40
1
 40
1
 40
1
 10
71.929143
 20
184.825691
 30
0.0
 10
71.598413
 20
184.825691
 30
0.0
 10
71.317294
 20
184.690644
 30
0.0
 10
71.085783
 20
184.420548
 30
0.0
  0
SPLINE
  5
31c
100
AcDbEntity
  8
Layer_1
 62
7
100
AcDbSpline
 70
8
 71
3
 72
8
 73
4
 74
0
 40
0
 40
0
 40
0
 40
0
 40
1
 40
1
 40
1
 40
1
 10
71.085783
 20
184.420548
 30
0.0
 10
70.854273
 20
184.153210
 30
0.0
 10
70.738518
 20
183.754957
 30
0.0
 10
70.738518
 20
183.225790
 30
0.0
  0
LWPOLYLINE
  5
31d
100
AcDbEntity
  8
Layer_1
 62
7
100
AcDbPolyline
 90
1
 70
1
 10
70.122533
 20
180.588225
 30
0.0
  0
LWPOLYLINE
  5
31e
100
AcDbEntity
  8
Layer_1
 62
7
100
AcDbPolyline
 90
1
 70
1
 10
70.738518
 20
183.225790
 30
0.0
  0
SPLINE
  5
31f
100
AcDbEntity
  8
Layer_1
 62
7
100
AcDbSpline
 70
8
 71
3
 72
8
 73
4
 74
0
 40
0
 40
0
 40
0
 40
0
 40
1
 40
1
 40
1
 40
1
 10
79.502840
 20
187.012639
 30
0.0
 10
79.974129
 20
187.012639
 30
0.0
 10
80.333796
 20
186.983700
 30
0.0
 10
80.581843
 20
186.925822
 30
0.0
  0
SPLINE
  5
320
100
AcDbEntity
  8
Layer_1
 62
7
100
AcDbSpline
 70
8
 71
3
 72
8
 73
4
 74
0
 40
0
 40
0
 40
0
 40
0
 40
1
 40
1
 40
1
 40
1
 10
80.581843
 20
186.925822
 30
0.0
 10
80.929109
 20
186.845896
 30
0.0
 10
81.225387
 20
186.701203
 30
0.0
 10
81.470679
 20
186.491741
 30
0.0
  0
SPLINE
  5
321
100
AcDbEntity
  8
Layer_1
 62
7
100
AcDbSpline
 70
8
 71
3
 72
8
 73
4
 74
0
 40
0
 40
0
 40
0
 40
0
 40
1
 40
1
 40
1
 40
1
 10
81.470679
 20
186.491741
 30
0.0
 10
81.790384
 20
186.221645
 30
0.0
 10
82.028784
 20
185.875757
 30
0.0
 10
82.185879
 20
185.454077
 30
0.0
  0
SPLINE
  5
322
100
AcDbEntity
  8
Layer_1
 62
7
100
AcDbSpline
 70
8
 71
3
 72
8
 73
4
 74
0
 40
0
 40
0
 40
0
 40
0
 40
1
 40
1
 40
1
 40
1
 10
82.185879
 20
185.454077
 30
0.0
 10
82.345732
 20
185.035153
 30
0.0
 10
82.425658
 20
184.555596
 30
0.0
 10
82.425658
 20
184.015405
 30
0.0
  0
SPLINE
  5
323
100
AcDbEntity
  8
Layer_1
 62
7
100
AcDbSpline
 70
8
 71
3
 72
8
 73
4
 74
0
 40
0
 40
0
 40
0
 40
0
 40
1
 40
1
 40
1
 40
1
 10
82.425658
 20
184.015405
 30
0.0
 10
82.425658
 20
183.555141
 30
0.0
 10
82.371915
 20
183.147242
 30
0.0
 10
82.264429
 20
182.791707
 30
0.0
  0
SPLINE
  5
324
100
AcDbEntity
  8
Layer_1
 62
7
100
AcDbSpline
 70
8
 71
3
 72
8
 73
4
 74
0
 40
0
 40
0
 40
0
 40
0
 40
1
 40
1
 40
1
 40
1
 10
82.264429
 20
182.791707
 30
0.0
 10
82.156941
 20
182.436174
 30
0.0
 10
82.019137
 20
182.141274
 30
0.0
 10
81.851017
 20
181.907007
 30
0.0
  0
SPLINE
  5
325
100
AcDbEntity
  8
Layer_1
 62
7
100
AcDbSpline
 70
8
 71
3
 72
8
 73
4
 74
0
 40
0
 40
0
 40
0
 40
0
 40
1
 40
1
 40
1
 40
1
 10
81.851017
 20
181.907007
 30
0.0
 10
81.682896
 20
181.675496
 30
0.0
 10
81.498239
 20
181.492218
 30
0.0
 10
81.297046
 20
181.357171
 30
0.0
  0
SPLINE
  5
326
100
AcDbEntity
  8
Layer_1
 62
7
100
AcDbSpline
 70
8
 71
3
 72
8
 73
4
 74
0
 40
0
 40
0
 40
0
 40
0
 40
1
 40
1
 40
1
 40
1
 10
81.297046
 20
181.357171
 30
0.0
 10
81.098609
 20
181.224879
 30
0.0
 10
80.857451
 20
181.124282
 30
0.0
 10
80.573575
 20
181.055379
 30
0.0
  0
SPLINE
  5
327
100
AcDbEntity
  8
Layer_1
 62
7
100
AcDbSpline
 70
8
 71
3
 72
8
 73
4
 74
0
 40
0
 40
0
 40
0
 40
0
 40
1
 40
1
 40
1
 40
1
 10
80.573575
 20
181.055379
 30
0.0
 10
80.292455
 20
180.986478
 30
0.0
 10
79.968616
 20
180.952027
 30
0.0
 10
79.602059
 20
180.952027
 30
0.0
  0
LWPOLYLINE
  5
328
100
AcDbEntity
  8
Layer_1
 62
7
100
AcDbPolyline
 90
3
 70
0
 10
77.415111
 20
180.952027
 30
0.0
 10
77.415111
 20
187.012639
 30
0.0
 10
79.502840
 20
187.012639
 30
0.0
  0
LWPOLYLINE
  5
329
100
AcDbEntity
  8
Layer_1
 62
7
100
AcDbPolyline
 90
2
 70
0
 10
79.602059
 20
180.952027
 30
0.0
 10
77.415111
 20
180.952027
 30
0.0
  0
SPLINE
  5
32a
100
AcDbEntity
  8
Layer_1
 62
7
100
AcDbSpline
 70
8
 71
3
 72
8
 73
4
 74
0
 40
0
 40
0
 40
0
 40
0
 40
1
 40
1
 40
1
 40
1
 10
79.511109
 20
181.667228
 30
0.0
 10
79.910739
 20
181.667228
 30
0.0
 10
80.223553
 20
181.704435
 30
0.0
 10
80.449551
 20
181.778850
 30
0.0
  0
SPLINE
  5
32b
100
AcDbEntity
  8
Layer_1
 62
7
100
AcDbSpline
 70
8
 71
3
 72
8
 73
4
 74
0
 40
0
 40
0
 40
0
 40
0
 40
1
 40
1
 40
1
 40
1
 10
80.449551
 20
181.778850
 30
0.0
 10
80.678306
 20
181.853264
 30
0.0
 10
80.860207
 20
181.957994
 30
0.0
 10
80.995254
 20
182.093043
 30
0.0
  0
SPLINE
  5
32c
100
AcDbEntity
  8
Layer_1
 62
7
100
AcDbSpline
 70
8
 71
3
 72
8
 73
4
 74
0
 40
0
 40
0
 40
0
 40
0
 40
1
 40
1
 40
1
 40
1
 10
80.995254
 20
182.093043
 30
0.0
 10
81.185425
 20
182.283211
 30
0.0
 10
81.332875
 20
182.538148
 30
0.0
 10
81.437606
 20
182.857853
 30
0.0
  0
SPLINE
  5
32d
100
AcDbEntity
  8
Layer_1
 62
7
100
AcDbSpline
 70
8
 71
3
 72
8
 73
4
 74
0
 40
0
 40
0
 40
0
 40
0
 40
1
 40
1
 40
1
 40
1
 10
81.437606
 20
182.857853
 30
0.0
 10
81.545092
 20
183.180315
 30
0.0
 10
81.598835
 20
183.570300
 30
0.0
 10
81.598835
 20
184.027809
 30
0.0
  0
SPLINE
  5
32e
100
AcDbEntity
  8
Layer_1
 62
7
100
AcDbSpline
 70
8
 71
3
 72
8
 73
4
 74
0
 40
0
 40
0
 40
0
 40
0
 40
1
 40
1
 40
1
 40
1
 10
81.598835
 20
184.027809
 30
0.0
 10
81.598835
 20
184.661706
 30
0.0
 10
81.494104
 20
185.148153
 30
0.0
 10
81.284642
 20
185.487150
 30
0.0
  0
SPLINE
  5
32f
100
AcDbEntity
  8
Layer_1
 62
7
100
AcDbSpline
 70
8
 71
3
 72
8
 73
4
 74
0
 40
0
 40
0
 40
0
 40
0
 40
1
 40
1
 40
1
 40
1
 10
81.284642
 20
185.487150
 30
0.0
 10
81.077938
 20
185.828903
 30
0.0
 10
80.825757
 20
186.057658
 30
0.0
 10
80.528101
 20
186.173413
 30
0.0
  0
SPLINE
  5
330
100
AcDbEntity
  8
Layer_1
 62
7
100
AcDbSpline
 70
8
 71
3
 72
8
 73
4
 74
0
 40
0
 40
0
 40
0
 40
0
 40
1
 40
1
 40
1
 40
1
 10
80.528101
 20
186.173413
 30
0.0
 10
80.313127
 20
186.256095
 30
0.0
 10
79.967239
 20
186.297436
 30
0.0
 10
79.490437
 20
186.297436
 30
0.0
  0
LWPOLYLINE
  5
331
100
AcDbEntity
  8
Layer_1
 62
7
100
AcDbPolyline
 90
2
 70
0
 10
78.217129
 20
181.667228
 30
0.0
 10
79.511109
 20
181.667228
 30
0.0
  0
SPLINE
  5
332
100
AcDbEntity
  8
Layer_1
 62
7
100
AcDbSpline
 70
8
 71
3
 72
8
 73
4
 74
0
 40
0
 40
0
 40
0
 40
0
 40
1
 40
1
 40
1
 40
1
 10
86.299325
 20
181.493595
 30
0.0
 10
86.023717
 20
181.259330
 30
0.0
 10
85.757755
 20
181.093965
 30
0.0
 10
85.501439
 20
180.997501
 30
0.0
  0
SPLINE
  5
333
100
AcDbEntity
  8
Layer_1
 62
7
100
AcDbSpline
 70
8
 71
3
 72
8
 73
4
 74
0
 40
0
 40
0
 40
0
 40
0
 40
1
 40
1
 40
1
 40
1
 10
85.501439
 20
180.997501
 30
0.0
 10
85.247880
 20
180.901040
 30
0.0
 10
84.975029
 20
180.852809
 30
0.0
 10
84.682885
 20
180.852809
 30
0.0
  0
SPLINE
  5
334
100
AcDbEntity
  8
Layer_1
 62
7
100
AcDbSpline
 70
8
 71
3
 72
8
 73
4
 74
0
 40
0
 40
0
 40
0
 40
0
 40
1
 40
1
 40
1
 40
1
 10
84.682885
 20
180.852809
 30
0.0
 10
84.200572
 20
180.852809
 30
0.0
 10
83.829880
 20
180.969941
 30
0.0
 10
83.570809
 20
181.204207
 30
0.0
  0
SPLINE
  5
335
100
AcDbEntity
  8
Layer_1
 62
7
100
AcDbSpline
 70
8
 71
3
 72
8
 73
4
 74
0
 40
0
 40
0
 40
0
 40
0
 40
1
 40
1
 40
1
 40
1
 10
83.570809
 20
181.204207
 30
0.0
 10
83.311738
 20
181.441230
 30
0.0
 10
83.182202
 20
181.743020
 30
0.0
 10
83.182202
 20
182.109580
 30
0.0
  0
SPLINE
  5
336
100
AcDbEntity
  8
Layer_1
 62
7
100
AcDbSpline
 70
8
 71
3
 72
8
 73
4
 74
0
 40
0
 40
0
 40
0
 40
0
 40
1
 40
1
 40
1
 40
1
 10
83.182202
 20
182.109580
 30
0.0
 10
83.182202
 20
182.324553
 30
0.0
 10
83.230433
 20
182.520235
 30
0.0
 10
83.326895
 20
182.696624
 30
0.0
  0
SPLINE
  5
337
100
AcDbEntity
  8
Layer_1
 62
7
100
AcDbSpline
 70
8
 71
3
 72
8
 73
4
 74
0
 40
0
 40
0
 40
0
 40
0
 40
1
 40
1
 40
1
 40
1
 10
83.326895
 20
182.696624
 30
0.0
 10
83.426114
 20
182.875768
 30
0.0
 10
83.554272
 20
183.019084
 30
0.0
 10
83.711369
 20
183.126572
 30
0.0
  0
SPLINE
  5
338
100
AcDbEntity
  8
Layer_1
 62
7
100
AcDbSpline
 70
8
 71
3
 72
8
 73
4
 74
0
 40
0
 40
0
 40
0
 40
0
 40
1
 40
1
 40
1
 40
1
 10
83.711369
 20
183.126572
 30
0.0
 10
83.871221
 20
183.234058
 30
0.0
 10
84.050366
 20
183.315362
 30
0.0
 10
84.248804
 20
183.370483
 30
0.0
  0
SPLINE
  5
339
100
AcDbEntity
  8
Layer_1
 62
7
100
AcDbSpline
 70
8
 71
3
 72
8
 73
4
 74
0
 40
0
 40
0
 40
0
 40
0
 40
1
 40
1
 40
1
 40
1
 10
84.248804
 20
183.370483
 30
0.0
 10
84.394875
 20
183.409068
 30
0.0
 10
84.615361
 20
183.446276
 30
0.0
 10
84.910262
 20
183.482106
 30
0.0
  0
SPLINE
  5
33a
100
AcDbEntity
  8
Layer_1
 62
7
100
AcDbSpline
 70
8
 71
3
 72
8
 73
4
 74
0
 40
0
 40
0
 40
0
 40
0
 40
1
 40
1
 40
1
 40
1
 10
84.910262
 20
183.482106
 30
0.0
 10
85.511087
 20
183.553764
 30
0.0
 10
85.953437
 20
183.639202
 30
0.0
 10
86.237312
 20
183.738421
 30
0.0
  0
SPLINE
  5
33b
100
AcDbEntity
  8
Layer_1
 62
7
100
AcDbSpline
 70
8
 71
3
 72
8
 73
4
 74
0
 40
0
 40
0
 40
0
 40
0
 40
1
 40
1
 40
1
 40
1
 10
86.237312
 20
183.738421
 30
0.0
 10
86.240063
 20
183.840395
 30
0.0
 10
86.241439
 20
183.905162
 30
0.0
 10
86.241439
 20
183.932723
 30
0.0
  0
SPLINE
  5
33c
100
AcDbEntity
  8
Layer_1
 62
7
100
AcDbSpline
 70
8
 71
3
 72
8
 73
4
 74
0
 40
0
 40
0
 40
0
 40
0
 40
1
 40
1
 40
1
 40
1
 10
86.241439
 20
183.932723
 30
0.0
 10
86.241439
 20
184.235891
 30
0.0
 10
86.171159
 20
184.449487
 30
0.0
 10
86.030598
 20
184.573512
 30
0.0
  0
SPLINE
  5
33d
100
AcDbEntity
  8
Layer_1
 62
7
100
AcDbSpline
 70
8
 71
3
 72
8
 73
4
 74
0
 40
0
 40
0
 40
0
 40
0
 40
1
 40
1
 40
1
 40
1
 10
86.030598
 20
184.573512
 30
0.0
 10
85.840430
 20
184.741632
 30
0.0
 10
85.557932
 20
184.825691
 30
0.0
 10
85.183106
 20
184.825691
 30
0.0
  0
SPLINE
  5
33e
100
AcDbEntity
  8
Layer_1
 62
7
100
AcDbSpline
 70
8
 71
3
 72
8
 73
4
 74
0
 40
0
 40
0
 40
0
 40
0
 40
1
 40
1
 40
1
 40
1
 10
85.183106
 20
184.825691
 30
0.0
 10
84.833083
 20
184.825691
 30
0.0
 10
84.574012
 20
184.763680
 30
0.0
 10
84.405892
 20
184.639658
 30
0.0
  0
SPLINE
  5
33f
100
AcDbEntity
  8
Layer_1
 62
7
100
AcDbSpline
 70
8
 71
3
 72
8
 73
4
 74
0
 40
0
 40
0
 40
0
 40
0
 40
1
 40
1
 40
1
 40
1
 10
84.405892
 20
184.639658
 30
0.0
 10
84.240528
 20
184.518390
 30
0.0
 10
84.117882
 20
184.302038
 30
0.0
 10
84.037955
 20
183.990600
 30
0.0
  0
LWPOLYLINE
  5
340
100
AcDbEntity
  8
Layer_1
 62
7
100
AcDbPolyline
 90
3
 70
0
 10
79.490437
 20
186.297436
 30
0.0
 10
78.217129
 20
186.297436
 30
0.0
 10
78.217129
 20
181.667228
 30
0.0
  0
SPLINE
  5
341
100
AcDbEntity
  8
Layer_1
 62
7
100
AcDbSpline
 70
8
 71
3
 72
8
 73
4
 74
0
 40
0
 40
0
 40
0
 40
0
 40
1
 40
1
 40
1
 40
1
 10
83.310351
 20
184.089819
 30
0.0
 10
83.376496
 20
184.401257
 30
0.0
 10
83.485362
 20
184.652059
 30
0.0
 10
83.636947
 20
184.842228
 30
0.0
  0
SPLINE
  5
342
100
AcDbEntity
  8
Layer_1
 62
7
100
AcDbSpline
 70
8
 71
3
 72
8
 73
4
 74
0
 40
0
 40
0
 40
0
 40
0
 40
1
 40
1
 40
1
 40
1
 10
83.636947
 20
184.842228
 30
0.0
 10
83.788530
 20
185.035153
 30
0.0
 10
84.007638
 20
185.182604
 30
0.0
 10
84.294270
 20
185.284579
 30
0.0
  0
SPLINE
  5
343
100
AcDbEntity
  8
Layer_1
 62
7
100
AcDbSpline
 70
8
 71
3
 72
8
 73
4
 74
0
 40
0
 40
0
 40
0
 40
0
 40
1
 40
1
 40
1
 40
1
 10
84.294270
 20
185.284579
 30
0.0
 10
84.580902
 20
185.389310
 30
0.0
 10
84.913009
 20
185.441676
 30
0.0
 10
85.290593
 20
185.441676
 30
0.0
  0
SPLINE
  5
344
100
AcDbEntity
  8
Layer_1
 62
7
100
AcDbSpline
 70
8
 71
3
 72
8
 73
4
 74
0
 40
0
 40
0
 40
0
 40
0
 40
1
 40
1
 40
1
 40
1
 10
85.290593
 20
185.441676
 30
0.0
 10
85.665419
 20
185.441676
 30
0.0
 10
85.969965
 20
185.397579
 30
0.0
 10
86.204231
 20
185.309384
 30
0.0
  0
SPLINE
  5
345
100
AcDbEntity
  8
Layer_1
 62
7
100
AcDbSpline
 70
8
 71
3
 72
8
 73
4
 74
0
 40
0
 40
0
 40
0
 40
0
 40
1
 40
1
 40
1
 40
1
 10
86.204231
 20
185.309384
 30
0.0
 10
86.438498
 20
185.221190
 30
0.0
 10
86.610753
 20
185.109568
 30
0.0
 10
86.720996
 20
184.974520
 30
0.0
  0
SPLINE
  5
346
100
AcDbEntity
  8
Layer_1
 62
7
100
AcDbSpline
 70
8
 71
3
 72
8
 73
4
 74
0
 40
0
 40
0
 40
0
 40
0
 40
1
 40
1
 40
1
 40
1
 10
86.720996
 20
184.974520
 30
0.0
 10
86.831239
 20
184.842228
 30
0.0
 10
86.908410
 20
184.674107
 30
0.0
 10
86.952507
 20
184.470158
 30
0.0
  0
SPLINE
  5
347
100
AcDbEntity
  8
Layer_1
 62
7
100
AcDbSpline
 70
8
 71
3
 72
8
 73
4
 74
0
 40
0
 40
0
 40
0
 40
0
 40
1
 40
1
 40
1
 40
1
 10
86.952507
 20
184.470158
 30
0.0
 10
86.977311
 20
184.343378
 30
0.0
 10
86.989712
 20
184.114624
 30
0.0
 10
86.989712
 20
183.783895
 30
0.0
  0
LWPOLYLINE
  5
348
100
AcDbEntity
  8
Layer_1
 62
7
100
AcDbPolyline
 90
2
 70
0
 10
84.037955
 20
183.990600
 30
0.0
 10
83.310351
 20
184.089819
 30
0.0
  0
SPLINE
  5
349
100
AcDbEntity
  8
Layer_1
 62
7
100
AcDbSpline
 70
8
 71
3
 72
8
 73
4
 74
0
 40
0
 40
0
 40
0
 40
0
 40
1
 40
1
 40
1
 40
1
 10
86.989712
 20
182.791707
 30
0.0
 10
86.989712
 20
182.099933
 30
0.0
 10
87.004871
 20
181.661717
 30
0.0
 10
87.035189
 20
181.477059
 30
0.0
  0
SPLINE
  5
34a
100
AcDbEntity
  8
Layer_1
 62
7
100
AcDbSpline
 70
8
 71
3
 72
8
 73
4
 74
0
 40
0
 40
0
 40
0
 40
0
 40
1
 40
1
 40
1
 40
1
 10
87.035189
 20
181.477059
 30
0.0
 10
87.068262
 20
181.295158
 30
0.0
 10
87.131652
 20
181.120147
 30
0.0
 10
87.225358
 20
180.952027
 30
0.0
  0
LWPOLYLINE
  5
34b
100
AcDbEntity
  8
Layer_1
 62
7
100
AcDbPolyline
 90
2
 70
0
 10
86.989712
 20
183.783895
 30
0.0
 10
86.989712
 20
182.791707
 30
0.0
  0
SPLINE
  5
34c
100
AcDbEntity
  8
Layer_1
 62
7
100
AcDbSpline
 70
8
 71
3
 72
8
 73
4
 74
0
 40
0
 40
0
 40
0
 40
0
 40
1
 40
1
 40
1
 40
1
 10
86.448145
 20
180.952027
 30
0.0
 10
86.370975
 20
181.106368
 30
0.0
 10
86.321365
 20
181.286890
 30
0.0
 10
86.299317
 20
181.493595
 30
0.0
  0
LWPOLYLINE
  5
34d
100
AcDbEntity
  8
Layer_1
 62
7
100
AcDbPolyline
 90
2
 70
0
 10
87.225358
 20
180.952027
 30
0.0
 10
86.448145
 20
180.952027
 30
0.0
  0
SPLINE
  5
34e
100
AcDbEntity
  8
Layer_1
 62
7
100
AcDbSpline
 70
8
 71
3
 72
8
 73
4
 74
0
 40
0
 40
0
 40
0
 40
0
 40
1
 40
1
 40
1
 40
1
 10
86.237312
 20
183.155509
 30
0.0
 10
85.967216
 20
183.045266
 30
0.0
 10
85.562073
 20
182.951560
 30
0.0
 10
85.021882
 20
182.874389
 30
0.0
  0
SPLINE
  5
34f
100
AcDbEntity
  8
Layer_1
 62
7
100
AcDbSpline
 70
8
 71
3
 72
8
 73
4
 74
0
 40
0
 40
0
 40
0
 40
0
 40
1
 40
1
 40
1
 40
1
 10
85.021882
 20
182.874389
 30
0.0
 10
84.715958
 20
182.830292
 30
0.0
 10
84.499607
 20
182.780683
 30
0.0
 10
84.372827
 20
182.725561
 30
0.0
  0
SPLINE
  5
350
100
AcDbEntity
  8
Layer_1
 62
7
100
AcDbSpline
 70
8
 71
3
 72
8
 73
4
 74
0
 40
0
 40
0
 40
0
 40
0
 40
1
 40
1
 40
1
 40
1
 10
84.372827
 20
182.725561
 30
0.0
 10
84.246048
 20
182.670440
 30
0.0
 10
84.148207
 20
182.589136
 30
0.0
 10
84.079304
 20
182.481650
 30
0.0
  0
SPLINE
  5
351
100
AcDbEntity
  8
Layer_1
 62
7
100
AcDbSpline
 70
8
 71
3
 72
8
 73
4
 74
0
 40
0
 40
0
 40
0
 40
0
 40
1
 40
1
 40
1
 40
1
 10
84.079304
 20
182.481650
 30
0.0
 10
84.010403
 20
182.376919
 30
0.0
 10
83.975952
 20
182.259785
 30
0.0
 10
83.975952
 20
182.130249
 30
0.0
  0
SPLINE
  5
352
100
AcDbEntity
  8
Layer_1
 62
7
100
AcDbSpline
 70
8
 71
3
 72
8
 73
4
 74
0
 40
0
 40
0
 40
0
 40
0
 40
1
 40
1
 40
1
 40
1
 10
83.975952
 20
182.130249
 30
0.0
 10
83.975952
 20
181.931811
 30
0.0
 10
84.050366
 20
181.766447
 30
0.0
 10
84.199194
 20
181.634155
 30
0.0
  0
SPLINE
  5
353
100
AcDbEntity
  8
Layer_1
 62
7
100
AcDbSpline
 70
8
 71
3
 72
8
 73
4
 74
0
 40
0
 40
0
 40
0
 40
0
 40
1
 40
1
 40
1
 40
1
 10
84.199194
 20
181.634155
 30
0.0
 10
84.350778
 20
181.501863
 30
0.0
 10
84.571264
 20
181.435718
 30
0.0
 10
84.860653
 20
181.435718
 30
0.0
  0
SPLINE
  5
354
100
AcDbEntity
  8
Layer_1
 62
7
100
AcDbSpline
 70
8
 71
3
 72
8
 73
4
 74
0
 40
0
 40
0
 40
0
 40
0
 40
1
 40
1
 40
1
 40
1
 10
84.860653
 20
181.435718
 30
0.0
 10
85.147285
 20
181.435718
 30
0.0
 10
85.402221
 20
181.497730
 30
0.0
 10
85.625463
 20
181.621754
 30
0.0
  0
SPLINE
  5
355
100
AcDbEntity
  8
Layer_1
 62
7
100
AcDbSpline
 70
8
 71
3
 72
8
 73
4
 74
0
 40
0
 40
0
 40
0
 40
0
 40
1
 40
1
 40
1
 40
1
 10
85.625463
 20
181.621754
 30
0.0
 10
85.848706
 20
181.748534
 30
0.0
 10
86.012693
 20
181.920788
 30
0.0
 10
86.117424
 20
182.138517
 30
0.0
  0
SPLINE
  5
356
100
AcDbEntity
  8
Layer_1
 62
7
100
AcDbSpline
 70
8
 71
3
 72
8
 73
4
 74
0
 40
0
 40
0
 40
0
 40
0
 40
1
 40
1
 40
1
 40
1
 10
86.117424
 20
182.138517
 30
0.0
 10
86.197349
 20
182.306639
 30
0.0
 10
86.237312
 20
182.554685
 30
0.0
 10
86.237312
 20
182.882658
 30
0.0
  0
LWPOLYLINE
  5
357
100
AcDbEntity
  8
Layer_1
 62
7
100
AcDbPolyline
 90
1
 70
1
 10
86.299317
 20
181.493595
 30
0.0
  0
LWPOLYLINE
  5
358
100
AcDbEntity
  8
Layer_1
 62
7
100
AcDbPolyline
 90
2
 70
0
 10
86.237312
 20
182.882658
 30
0.0
 10
86.237312
 20
183.155509
 30
0.0
  0
SPLINE
  5
359
100
AcDbEntity
  8
Layer_1
 62
7
100
AcDbSpline
 70
8
 71
3
 72
8
 73
4
 74
0
 40
0
 40
0
 40
0
 40
0
 40
1
 40
1
 40
1
 40
1
 10
88.027384
 20
179.959840
 30
0.0
 10
88.189992
 20
179.915743
 30
0.0
 10
88.331930
 20
179.893694
 30
0.0
 10
88.453197
 20
179.893694
 30
0.0
  0
SPLINE
  5
35a
100
AcDbEntity
  8
Layer_1
 62
7
100
AcDbSpline
 70
8
 71
3
 72
8
 73
4
 74
0
 40
0
 40
0
 40
0
 40
0
 40
1
 40
1
 40
1
 40
1
 10
88.453197
 20
179.893694
 30
0.0
 10
88.618562
 20
179.893694
 30
0.0
 10
88.750853
 20
179.921255
 30
0.0
 10
88.850072
 20
179.976376
 30
0.0
  0
SPLINE
  5
35b
100
AcDbEntity
  8
Layer_1
 62
7
100
AcDbSpline
 70
8
 71
3
 72
8
 73
4
 74
0
 40
0
 40
0
 40
0
 40
0
 40
1
 40
1
 40
1
 40
1
 10
88.850072
 20
179.976376
 30
0.0
 10
88.949291
 20
180.031498
 30
0.0
 10
89.030595
 20
180.108668
 30
0.0
 10
89.093986
 20
180.207887
 30
0.0
  0
SPLINE
  5
35c
100
AcDbEntity
  8
Layer_1
 62
7
100
AcDbSpline
 70
8
 71
3
 72
8
 73
4
 74
0
 40
0
 40
0
 40
0
 40
0
 40
1
 40
1
 40
1
 40
1
 10
89.093986
 20
180.207887
 30
0.0
 10
89.140838
 20
180.282300
 30
0.0
 10
89.216630
 20
180.466957
 30
0.0
 10
89.321361
 20
180.761858
 30
0.0
  0
SPLINE
  5
35d
100
AcDbEntity
  8
Layer_1
 62
7
100
AcDbSpline
 70
8
 71
3
 72
8
 73
4
 74
0
 40
0
 40
0
 40
0
 40
0
 40
1
 40
1
 40
1
 40
1
 10
89.321361
 20
180.761858
 30
0.0
 10
89.335137
 20
180.803198
 30
0.0
 10
89.357186
 20
180.863832
 30
0.0
 10
89.387507
 20
180.943759
 30
0.0
  0
LWPOLYLINE
  5
35e
100
AcDbEntity
  8
Layer_1
 62
7
100
AcDbPolyline
 90
2
 70
0
 10
88.110067
 20
179.261173
 30
0.0
 10
88.027384
 20
179.959840
 30
0.0
  0
SPLINE
  5
35f
100
AcDbEntity
  8
Layer_1
 62
7
100
AcDbSpline
 70
8
 71
3
 72
8
 73
4
 74
0
 40
0
 40
0
 40
0
 40
0
 40
1
 40
1
 40
1
 40
1
 10
89.437116
 20
182.799975
 30
0.0
 10
89.555628
 20
182.477515
 30
0.0
 10
89.661738
 20
182.138518
 30
0.0
 10
89.755444
 20
181.782983
 30
0.0
  0
SPLINE
  5
360
100
AcDbEntity
  8
Layer_1
 62
7
100
AcDbSpline
 70
8
 71
3
 72
8
 73
4
 74
0
 40
0
 40
0
 40
0
 40
0
 40
1
 40
1
 40
1
 40
1
 10
89.755444
 20
181.782983
 30
0.0
 10
89.840882
 20
182.124737
 30
0.0
 10
89.942857
 20
182.458222
 30
0.0
 10
90.061369
 20
182.783439
 30
0.0
  0
LWPOLYLINE
  5
361
100
AcDbEntity
  8
Layer_1
 62
7
100
AcDbPolyline
 90
4
 70
0
 10
89.387507
 20
180.943759
 30
0.0
 10
87.721460
 20
185.342457
 30
0.0
 10
88.523478
 20
185.342457
 30
0.0
 10
89.437116
 20
182.799975
 30
0.0
  0
SPLINE
  5
362
100
AcDbEntity
  8
Layer_1
 62
7
100
AcDbSpline
 70
8
 71
3
 72
8
 73
4
 74
0
 40
0
 40
0
 40
0
 40
0
 40
1
 40
1
 40
1
 40
1
 10
90.073770
 20
180.877613
 30
0.0
 10
89.894626
 20
180.395299
 30
0.0
 10
89.755444
 20
180.063191
 30
0.0
 10
89.656226
 20
179.881290
 30
0.0
  0
SPLINE
  5
363
100
AcDbEntity
  8
Layer_1
 62
7
100
AcDbSpline
 70
8
 71
3
 72
8
 73
4
 74
0
 40
0
 40
0
 40
0
 40
0
 40
1
 40
1
 40
1
 40
1
 10
89.656226
 20
179.881290
 30
0.0
 10
89.523934
 20
179.636001
 30
0.0
 10
89.372350
 20
179.456856
 30
0.0
 10
89.201473
 20
179.343856
 30
0.0
  0
SPLINE
  5
364
100
AcDbEntity
  8
Layer_1
 62
7
100
AcDbSpline
 70
8
 71
3
 72
8
 73
4
 74
0
 40
0
 40
0
 40
0
 40
0
 40
1
 40
1
 40
1
 40
1
 10
89.201473
 20
179.343856
 30
0.0
 10
89.030596
 20
179.228100
 30
0.0
 10
88.826647
 20
179.170223
 30
0.0
 10
88.589624
 20
179.170223
 30
0.0
  0
SPLINE
  5
365
100
AcDbEntity
  8
Layer_1
 62
7
100
AcDbSpline
 70
8
 71
3
 72
8
 73
4
 74
0
 40
0
 40
0
 40
0
 40
0
 40
1
 40
1
 40
1
 40
1
 10
88.589624
 20
179.170223
 30
0.0
 10
88.446308
 20
179.170223
 30
0.0
 10
88.286456
 20
179.200540
 30
0.0
 10
88.110067
 20
179.261173
 30
0.0
  0
LWPOLYLINE
  5
366
100
AcDbEntity
  8
Layer_1
 62
7
100
AcDbPolyline
 90
4
 70
0
 10
90.061369
 20
182.783439
 30
0.0
 10
90.999812
 20
185.342457
 30
0.0
 10
91.743952
 20
185.342457
 30
0.0
 10
90.073770
 20
180.877613
 30
0.0
  0
LWPOLYLINE
  5
367
100
AcDbEntity
  8
Layer_1
 62
7
100
AcDbPolyline
 90
1
 70
1
 10
88.110067
 20
179.261173
 30
0.0
  0
SPLINE
  5
368
100
AcDbEntity
  8
Layer_1
 62
7
100
AcDbSpline
 70
8
 71
3
 72
8
 73
4
 74
0
 40
0
 40
0
 40
0
 40
0
 40
1
 40
1
 40
1
 40
1
 10
92.814689
 20
182.378296
 30
0.0
 10
92.856029
 20
182.083396
 30
0.0
 10
92.970406
 20
181.857398
 30
0.0
 10
93.157819
 20
181.700301
 30
0.0
  0
SPLINE
  5
369
100
AcDbEntity
  8
Layer_1
 62
7
100
AcDbSpline
 70
8
 71
3
 72
8
 73
4
 74
0
 40
0
 40
0
 40
0
 40
0
 40
1
 40
1
 40
1
 40
1
 10
93.157819
 20
181.700301
 30
0.0
 10
93.347989
 20
181.543205
 30
0.0
 10
93.612573
 20
181.464658
 30
0.0
 10
93.951569
 20
181.464658
 30
0.0
  0
SPLINE
  5
36a
100
AcDbEntity
  8
Layer_1
 62
7
100
AcDbSpline
 70
8
 71
3
 72
8
 73
4
 74
0
 40
0
 40
0
 40
0
 40
0
 40
1
 40
1
 40
1
 40
1
 10
93.951569
 20
181.464658
 30
0.0
 10
94.293323
 20
181.464658
 30
0.0
 10
94.546882
 20
181.533560
 30
0.0
 10
94.712246
 20
181.671363
 30
0.0
  0
SPLINE
  5
36b
100
AcDbEntity
  8
Layer_1
 62
7
100
AcDbSpline
 70
8
 71
3
 72
8
 73
4
 74
0
 40
0
 40
0
 40
0
 40
0
 40
1
 40
1
 40
1
 40
1
 10
94.712246
 20
181.671363
 30
0.0
 10
94.877611
 20
181.811922
 30
0.0
 10
94.960293
 20
181.975908
 30
0.0
 10
94.960293
 20
182.163322
 30
0.0
  0
SPLINE
  5
36c
100
AcDbEntity
  8
Layer_1
 62
7
100
AcDbSpline
 70
8
 71
3
 72
8
 73
4
 74
0
 40
0
 40
0
 40
0
 40
0
 40
1
 40
1
 40
1
 40
1
 10
94.960293
 20
182.163322
 30
0.0
 10
94.960293
 20
182.331443
 30
0.0
 10
94.887258
 20
182.463735
 30
0.0
 10
94.741186
 20
182.560197
 30
0.0
  0
SPLINE
  5
36d
100
AcDbEntity
  8
Layer_1
 62
7
100
AcDbSpline
 70
8
 71
3
 72
8
 73
4
 74
0
 40
0
 40
0
 40
0
 40
0
 40
1
 40
1
 40
1
 40
1
 10
94.741186
 20
182.560197
 30
0.0
 10
94.639211
 20
182.626342
 30
0.0
 10
94.385652
 20
182.710403
 30
0.0
 10
93.980509
 20
182.812379
 30
0.0
  0
SPLINE
  5
36e
100
AcDbEntity
  8
Layer_1
 62
7
100
AcDbSpline
 70
8
 71
3
 72
8
 73
4
 74
0
 40
0
 40
0
 40
0
 40
0
 40
1
 40
1
 40
1
 40
1
 10
93.980509
 20
182.812379
 30
0.0
 10
93.434806
 20
182.950183
 30
0.0
 10
93.055845
 20
183.068694
 30
0.0
 10
92.843627
 20
183.167913
 30
0.0
  0
SPLINE
  5
36f
100
AcDbEntity
  8
Layer_1
 62
7
100
AcDbSpline
 70
8
 71
3
 72
8
 73
4
 74
0
 40
0
 40
0
 40
0
 40
0
 40
1
 40
1
 40
1
 40
1
 10
92.843627
 20
183.167913
 30
0.0
 10
92.634165
 20
183.269887
 30
0.0
 10
92.474312
 20
183.409068
 30
0.0
 10
92.364069
 20
183.585457
 30
0.0
  0
SPLINE
  5
370
100
AcDbEntity
  8
Layer_1
 62
7
100
AcDbSpline
 70
8
 71
3
 72
8
 73
4
 74
0
 40
0
 40
0
 40
0
 40
0
 40
1
 40
1
 40
1
 40
1
 10
92.364069
 20
183.585457
 30
0.0
 10
92.256583
 20
183.764603
 30
0.0
 10
92.202840
 20
183.961663
 30
0.0
 10
92.202840
 20
184.176637
 30
0.0
  0
SPLINE
  5
371
100
AcDbEntity
  8
Layer_1
 62
7
100
AcDbSpline
 70
8
 71
3
 72
8
 73
4
 74
0
 40
0
 40
0
 40
0
 40
0
 40
1
 40
1
 40
1
 40
1
 10
92.202840
 20
184.176637
 30
0.0
 10
92.202840
 20
184.372317
 30
0.0
 10
92.246937
 20
184.552840
 30
0.0
 10
92.335132
 20
184.718204
 30
0.0
  0
SPLINE
  5
372
100
AcDbEntity
  8
Layer_1
 62
7
100
AcDbSpline
 70
8
 71
3
 72
8
 73
4
 74
0
 40
0
 40
0
 40
0
 40
0
 40
1
 40
1
 40
1
 40
1
 10
92.335132
 20
184.718204
 30
0.0
 10
92.426081
 20
184.886326
 30
0.0
 10
92.548726
 20
185.025508
 30
0.0
 10
92.703067
 20
185.135751
 30
0.0
  0
SPLINE
  5
373
100
AcDbEntity
  8
Layer_1
 62
7
100
AcDbSpline
 70
8
 71
3
 72
8
 73
4
 74
0
 40
0
 40
0
 40
0
 40
0
 40
1
 40
1
 40
1
 40
1
 10
92.703067
 20
185.135751
 30
0.0
 10
92.818822
 20
185.221189
 30
0.0
 10
92.975918
 20
185.292847
 30
0.0
 10
93.174356
 20
185.350725
 30
0.0
  0
SPLINE
  5
374
100
AcDbEntity
  8
Layer_1
 62
7
100
AcDbSpline
 70
8
 71
3
 72
8
 73
4
 74
0
 40
0
 40
0
 40
0
 40
0
 40
1
 40
1
 40
1
 40
1
 10
93.174356
 20
185.350725
 30
0.0
 10
93.375550
 20
185.411359
 30
0.0
 10
93.590524
 20
185.441676
 30
0.0
 10
93.819278
 20
185.441676
 30
0.0
  0
SPLINE
  5
375
100
AcDbEntity
  8
Layer_1
 62
7
100
AcDbSpline
 70
8
 71
3
 72
8
 73
4
 74
0
 40
0
 40
0
 40
0
 40
0
 40
1
 40
1
 40
1
 40
1
 10
93.819278
 20
185.441676
 30
0.0
 10
94.163788
 20
185.441676
 30
0.0
 10
94.465579
 20
185.392066
 30
0.0
 10
94.724650
 20
185.292848
 30
0.0
  0
SPLINE
  5
376
100
AcDbEntity
  8
Layer_1
 62
7
100
AcDbSpline
 70
8
 71
3
 72
8
 73
4
 74
0
 40
0
 40
0
 40
0
 40
0
 40
1
 40
1
 40
1
 40
1
 10
94.724650
 20
185.292848
 30
0.0
 10
94.986476
 20
185.193629
 30
0.0
 10
95.179402
 20
185.058581
 30
0.0
 10
95.303426
 20
184.887704
 30
0.0
  0
SPLINE
  5
377
100
AcDbEntity
  8
Layer_1
 62
7
100
AcDbSpline
 70
8
 71
3
 72
8
 73
4
 74
0
 40
0
 40
0
 40
0
 40
0
 40
1
 40
1
 40
1
 40
1
 10
95.303426
 20
184.887704
 30
0.0
 10
95.427449
 20
184.719583
 30
0.0
 10
95.512887
 20
184.493585
 30
0.0
 10
95.559741
 20
184.209710
 30
0.0
  0
LWPOLYLINE
  5
378
100
AcDbEntity
  8
Layer_1
 62
7
100
AcDbPolyline
 90
2
 70
0
 10
92.078817
 20
182.262540
 30
0.0
 10
92.814689
 20
182.378296
 30
0.0
  0
SPLINE
  5
379
100
AcDbEntity
  8
Layer_1
 62
7
100
AcDbSpline
 70
8
 71
3
 72
8
 73
4
 74
0
 40
0
 40
0
 40
0
 40
0
 40
1
 40
1
 40
1
 40
1
 10
94.832137
 20
184.110491
 30
0.0
 10
94.799064
 20
184.336489
 30
0.0
 10
94.702601
 20
184.512878
 30
0.0
 10
94.542749
 20
184.639658
 30
0.0
  0
SPLINE
  5
37a
100
AcDbEntity
  8
Layer_1
 62
7
100
AcDbSpline
 70
8
 71
3
 72
8
 73
4
 74
0
 40
0
 40
0
 40
0
 40
0
 40
1
 40
1
 40
1
 40
1
 10
94.542749
 20
184.639658
 30
0.0
 10
94.385652
 20
184.766437
 30
0.0
 10
94.162410
 20
184.829827
 30
0.0
 10
93.873022
 20
184.829827
 30
0.0
  0
SPLINE
  5
37b
100
AcDbEntity
  8
Layer_1
 62
7
100
AcDbSpline
 70
8
 71
3
 72
8
 73
4
 74
0
 40
0
 40
0
 40
0
 40
0
 40
1
 40
1
 40
1
 40
1
 10
93.873022
 20
184.829827
 30
0.0
 10
93.531269
 20
184.829827
 30
0.0
 10
93.287356
 20
184.773327
 30
0.0
 10
93.141283
 20
184.660327
 30
0.0
  0
SPLINE
  5
37c
100
AcDbEntity
  8
Layer_1
 62
7
100
AcDbSpline
 70
8
 71
3
 72
8
 73
4
 74
0
 40
0
 40
0
 40
0
 40
0
 40
1
 40
1
 40
1
 40
1
 10
93.141283
 20
184.660327
 30
0.0
 10
92.995212
 20
184.547329
 30
0.0
 10
92.922176
 20
184.415037
 30
0.0
 10
92.922176
 20
184.263452
 30
0.0
  0
SPLINE
  5
37d
100
AcDbEntity
  8
Layer_1
 62
7
100
AcDbSpline
 70
8
 71
3
 72
8
 73
4
 74
0
 40
0
 40
0
 40
0
 40
0
 40
1
 40
1
 40
1
 40
1
 10
92.922176
 20
184.263452
 30
0.0
 10
92.922176
 20
184.166990
 30
0.0
 10
92.952493
 20
184.080174
 30
0.0
 10
93.013127
 20
184.003004
 30
0.0
  0
SPLINE
  5
37e
100
AcDbEntity
  8
Layer_1
 62
7
100
AcDbSpline
 70
8
 71
3
 72
8
 73
4
 74
0
 40
0
 40
0
 40
0
 40
0
 40
1
 40
1
 40
1
 40
1
 10
93.013127
 20
184.003004
 30
0.0
 10
93.073760
 20
183.923077
 30
0.0
 10
93.168844
 20
183.856931
 30
0.0
 10
93.298379
 20
183.804566
 30
0.0
  0
SPLINE
  5
37f
100
AcDbEntity
  8
Layer_1
 62
7
100
AcDbSpline
 70
8
 71
3
 72
8
 73
4
 74
0
 40
0
 40
0
 40
0
 40
0
 40
1
 40
1
 40
1
 40
1
 10
93.298379
 20
183.804566
 30
0.0
 10
93.372794
 20
183.777006
 30
0.0
 10
93.591903
 20
183.713616
 30
0.0
 10
93.955705
 20
183.614397
 30
0.0
  0
SPLINE
  5
380
100
AcDbEntity
  8
Layer_1
 62
7
100
AcDbSpline
 70
8
 71
3
 72
8
 73
4
 74
0
 40
0
 40
0
 40
0
 40
0
 40
1
 40
1
 40
1
 40
1
 10
93.955705
 20
183.614397
 30
0.0
 10
94.482114
 20
183.473836
 30
0.0
 10
94.848673
 20
183.358081
 30
0.0
 10
95.055379
 20
183.267132
 30
0.0
  0
SPLINE
  5
381
100
AcDbEntity
  8
Layer_1
 62
7
100
AcDbSpline
 70
8
 71
3
 72
8
 73
4
 74
0
 40
0
 40
0
 40
0
 40
0
 40
1
 40
1
 40
1
 40
1
 10
95.055379
 20
183.267132
 30
0.0
 10
95.264841
 20
183.178937
 30
0.0
 10
95.428827
 20
183.049402
 30
0.0
 10
95.547338
 20
182.878525
 30
0.0
  0
SPLINE
  5
382
100
AcDbEntity
  8
Layer_1
 62
7
100
AcDbSpline
 70
8
 71
3
 72
8
 73
4
 74
0
 40
0
 40
0
 40
0
 40
0
 40
1
 40
1
 40
1
 40
1
 10
95.547338
 20
182.878525
 30
0.0
 10
95.665850
 20
182.707648
 30
0.0
 10
95.725106
 20
182.495430
 30
0.0
 10
95.725106
 20
182.241871
 30
0.0
  0
SPLINE
  5
383
100
AcDbEntity
  8
Layer_1
 62
7
100
AcDbSpline
 70
8
 71
3
 72
8
 73
4
 74
0
 40
0
 40
0
 40
0
 40
0
 40
1
 40
1
 40
1
 40
1
 10
95.725106
 20
182.241871
 30
0.0
 10
95.725106
 20
181.993824
 30
0.0
 10
95.652069
 20
181.759558
 30
0.0
 10
95.505996
 20
181.539072
 30
0.0
  0
SPLINE
  5
384
100
AcDbEntity
  8
Layer_1
 62
7
100
AcDbSpline
 70
8
 71
3
 72
8
 73
4
 74
0
 40
0
 40
0
 40
0
 40
0
 40
1
 40
1
 40
1
 40
1
 10
95.505996
 20
181.539072
 30
0.0
 10
95.362680
 20
181.321341
 30
0.0
 10
95.154597
 20
181.151842
 30
0.0
 10
94.881746
 20
181.030574
 30
0.0
  0
SPLINE
  5
385
100
AcDbEntity
  8
Layer_1
 62
7
100
AcDbSpline
 70
8
 71
3
 72
8
 73
4
 74
0
 40
0
 40
0
 40
0
 40
0
 40
1
 40
1
 40
1
 40
1
 10
94.881746
 20
181.030574
 30
0.0
 10
94.608894
 20
180.912064
 30
0.0
 10
94.300213
 20
180.852809
 30
0.0
 10
93.955705
 20
180.852809
 30
0.0
  0
SPLINE
  5
386
100
AcDbEntity
  8
Layer_1
 62
7
100
AcDbSpline
 70
8
 71
3
 72
8
 73
4
 74
0
 40
0
 40
0
 40
0
 40
0
 40
1
 40
1
 40
1
 40
1
 10
93.955705
 20
180.852809
 30
0.0
 10
93.385196
 20
180.852809
 30
0.0
 10
92.949736
 20
180.971320
 30
0.0
 10
92.649325
 20
181.208343
 30
0.0
  0
SPLINE
  5
387
100
AcDbEntity
  8
Layer_1
 62
7
100
AcDbSpline
 70
8
 71
3
 72
8
 73
4
 74
0
 40
0
 40
0
 40
0
 40
0
 40
1
 40
1
 40
1
 40
1
 10
92.649325
 20
181.208343
 30
0.0
 10
92.351668
 20
181.445365
 30
0.0
 10
92.161499
 20
181.796764
 30
0.0
 10
92.078817
 20
182.262540
 30
0.0
  0
LWPOLYLINE
  5
388
100
AcDbEntity
  8
Layer_1
 62
7
100
AcDbPolyline
 90
2
 70
0
 10
95.559741
 20
184.209710
 30
0.0
 10
94.832137
 20
184.110491
 30
0.0
  0
LWPOLYLINE
  5
389
100
AcDbEntity
  8
Layer_1
 62
7
100
AcDbPolyline
 90
1
 70
1
 10
92.078817
 20
182.262540
 30
0.0
  0
SPLINE
  5
38a
100
AcDbEntity
  8
Layer_1
 62
7
100
AcDbSpline
 70
8
 71
3
 72
8
 73
4
 74
0
 40
0
 40
0
 40
0
 40
0
 40
1
 40
1
 40
1
 40
1
 10
126.066746
 20
182.448698
 30
0.0
 10
126.199037
 20
181.893808
 30
0.0
 10
126.312955
 20
181.342593
 30
0.0
 10
126.408500
 20
180.795052
 30
0.0
  0
SPLINE
  5
38b
100
AcDbEntity
  8
Layer_1
 62
7
100
AcDbSpline
 70
8
 71
3
 72
8
 73
4
 74
0
 40
0
 40
0
 40
0
 40
0
 40
1
 40
1
 40
1
 40
1
 10
126.408500
 20
180.795052
 30
0.0
 10
126.614288
 20
181.658623
 30
0.0
 10
126.735555
 20
182.156555
 30
0.0
 10
126.772302
 20
182.288847
 30
0.0
  0
LWPOLYLINE
  5
38c
100
AcDbEntity
  8
Layer_1
 62
7
100
AcDbPolyline
 90
4
 70
0
 10
125.884845
 20
179.665059
 30
0.0
 10
123.740616
 20
187.745881
 30
0.0
 10
124.837536
 20
187.745881
 30
0.0
 10
126.066746
 20
182.448698
 30
0.0
  0
SPLINE
  5
38d
100
AcDbEntity
  8
Layer_1
 62
7
100
AcDbSpline
 70
8
 71
3
 72
8
 73
4
 74
0
 40
0
 40
0
 40
0
 40
0
 40
1
 40
1
 40
1
 40
1
 10
130.757591
 20
183.655862
 30
0.0
 10
131.047899
 20
182.641624
 30
0.0
 10
131.257361
 20
181.688020
 30
0.0
 10
131.385977
 20
180.795052
 30
0.0
  0
SPLINE
  5
38e
100
AcDbEntity
  8
Layer_1
 62
7
100
AcDbSpline
 70
8
 71
3
 72
8
 73
4
 74
0
 40
0
 40
0
 40
0
 40
0
 40
1
 40
1
 40
1
 40
1
 10
131.385977
 20
180.795052
 30
0.0
 10
131.488871
 20
181.305844
 30
0.0
 10
131.623001
 20
181.891970
 30
0.0
 10
131.788365
 20
182.553430
 30
0.0
  0
LWPOLYLINE
  5
38f
100
AcDbEntity
  8
Layer_1
 62
7
100
AcDbPolyline
 90
4
 70
0
 10
126.772302
 20
182.288847
 30
0.0
 10
128.310195
 20
187.745881
 30
0.0
 10
129.600039
 20
187.745881
 30
0.0
 10
130.757591
 20
183.655862
 30
0.0
  0
SPLINE
  5
390
100
AcDbEntity
  8
Layer_1
 62
7
100
AcDbSpline
 70
8
 71
3
 72
8
 73
4
 74
0
 40
0
 40
0
 40
0
 40
0
 40
1
 40
1
 40
1
 40
1
 10
129.181116
 20
185.822138
 30
0.0
 10
129.037799
 20
186.336606
 30
0.0
 10
128.953278
 20
186.652636
 30
0.0
 10
128.927556
 20
186.770230
 30
0.0
  0
SPLINE
  5
391
100
AcDbEntity
  8
Layer_1
 62
7
100
AcDbSpline
 70
8
 71
3
 72
8
 73
4
 74
0
 40
0
 40
0
 40
0
 40
0
 40
1
 40
1
 40
1
 40
1
 10
128.927556
 20
186.770230
 30
0.0
 10
128.843035
 20
186.399077
 30
0.0
 10
128.764028
 20
186.083047
 30
0.0
 10
128.690534
 20
185.822138
 30
0.0
  0
LWPOLYLINE
  5
392
100
AcDbEntity
  8
Layer_1
 62
7
100
AcDbPolyline
 90
6
 70
0
 10
131.788365
 20
182.553430
 30
0.0
 10
133.056161
 20
187.745881
 30
0.0
 10
134.131031
 20
187.745881
 30
0.0
 10
131.915146
 20
179.665059
 30
0.0
 10
130.884372
 20
179.665059
 30
0.0
 10
129.181116
 20
185.822138
 30
0.0
  0
LWPOLYLINE
  5
393
100
AcDbEntity
  8
Layer_1
 62
7
100
AcDbPolyline
 90
3
 70
0
 10
128.690534
 20
185.822138
 30
0.0
 10
126.976253
 20
179.665059
 30
0.0
 10
125.884845
 20
179.665059
 30
0.0
  0
SPLINE
  5
394
100
AcDbEntity
  8
Layer_1
 62
7
100
AcDbSpline
 70
8
 71
3
 72
8
 73
4
 74
0
 40
0
 40
0
 40
0
 40
0
 40
1
 40
1
 40
1
 40
1
 10
135.994140
 20
184.846487
 30
0.0
 10
136.457162
 20
185.383003
 30
0.0
 10
137.041451
 20
185.651262
 30
0.0
 10
137.747007
 20
185.651262
 30
0.0
  0
SPLINE
  5
395
100
AcDbEntity
  8
Layer_1
 62
7
100
AcDbSpline
 70
8
 71
3
 72
8
 73
4
 74
0
 40
0
 40
0
 40
0
 40
0
 40
1
 40
1
 40
1
 40
1
 10
137.747007
 20
185.651262
 30
0.0
 10
138.180629
 20
185.651262
 30
0.0
 10
138.557293
 20
185.564904
 30
0.0
 10
138.877000
 20
185.392190
 30
0.0
  0
SPLINE
  5
396
100
AcDbEntity
  8
Layer_1
 62
7
100
AcDbSpline
 70
8
 71
3
 72
8
 73
4
 74
0
 40
0
 40
0
 40
0
 40
0
 40
1
 40
1
 40
1
 40
1
 10
138.877000
 20
185.392190
 30
0.0
 10
139.196705
 20
185.223151
 30
0.0
 10
139.424540
 20
184.987965
 30
0.0
 10
139.560506
 20
184.686633
 30
0.0
  0
SPLINE
  5
397
100
AcDbEntity
  8
Layer_1
 62
7
100
AcDbSpline
 70
8
 71
3
 72
8
 73
4
 74
0
 40
0
 40
0
 40
0
 40
0
 40
1
 40
1
 40
1
 40
1
 10
139.560506
 20
184.686633
 30
0.0
 10
139.700148
 20
184.385303
 30
0.0
 10
139.769969
 20
183.948006
 30
0.0
 10
139.769969
 20
183.374742
 30
0.0
  0
LWPOLYLINE
  5
398
100
AcDbEntity
  8
Layer_1
 62
7
100
AcDbPolyline
 90
4
 70
0
 10
135.001952
 20
179.665059
 30
0.0
 10
135.001952
 20
187.745881
 30
0.0
 10
135.994140
 20
187.745881
 30
0.0
 10
135.994140
 20
184.846487
 30
0.0
  0
SPLINE
  5
399
100
AcDbEntity
  8
Layer_1
 62
7
100
AcDbSpline
 70
8
 71
3
 72
8
 73
4
 74
0
 40
0
 40
0
 40
0
 40
0
 40
1
 40
1
 40
1
 40
1
 10
138.777779
 20
183.374742
 30
0.0
 10
138.777779
 20
183.870836
 30
0.0
 10
138.669374
 20
184.230963
 30
0.0
 10
138.452563
 20
184.455123
 30
0.0
  0
SPLINE
  5
39a
100
AcDbEntity
  8
Layer_1
 62
7
100
AcDbSpline
 70
8
 71
3
 72
8
 73
4
 74
0
 40
0
 40
0
 40
0
 40
0
 40
1
 40
1
 40
1
 40
1
 10
138.452563
 20
184.455123
 30
0.0
 10
138.239426
 20
184.682959
 30
0.0
 10
137.936256
 20
184.796877
 30
0.0
 10
137.543056
 20
184.796877
 30
0.0
  0
SPLINE
  5
39b
100
AcDbEntity
  8
Layer_1
 62
7
100
AcDbSpline
 70
8
 71
3
 72
8
 73
4
 74
0
 40
0
 40
0
 40
0
 40
0
 40
1
 40
1
 40
1
 40
1
 10
137.543056
 20
184.796877
 30
0.0
 10
137.249075
 20
184.796877
 30
0.0
 10
136.971630
 20
184.719707
 30
0.0
 10
136.710721
 20
184.565367
 30
0.0
  0
SPLINE
  5
39c
100
AcDbEntity
  8
Layer_1
 62
7
100
AcDbSpline
 70
8
 71
3
 72
8
 73
4
 74
0
 40
0
 40
0
 40
0
 40
0
 40
1
 40
1
 40
1
 40
1
 10
136.710721
 20
184.565367
 30
0.0
 10
136.453486
 20
184.414701
 30
0.0
 10
136.269747
 20
184.208913
 30
0.0
 10
136.159504
 20
183.948004
 30
0.0
  0
SPLINE
  5
39d
100
AcDbEntity
  8
Layer_1
 62
7
100
AcDbSpline
 70
8
 71
3
 72
8
 73
4
 74
0
 40
0
 40
0
 40
0
 40
0
 40
1
 40
1
 40
1
 40
1
 10
136.159504
 20
183.948004
 30
0.0
 10
136.049261
 20
183.687097
 30
0.0
 10
135.994140
 20
183.326970
 30
0.0
 10
135.994140
 20
182.867623
 30
0.0
  0
LWPOLYLINE
  5
39e
100
AcDbEntity
  8
Layer_1
 62
7
100
AcDbPolyline
 90
4
 70
0
 10
139.769969
 20
183.374742
 30
0.0
 10
139.769969
 20
179.665059
 30
0.0
 10
138.777779
 20
179.665059
 30
0.0
 10
138.777779
 20
183.374742
 30
0.0
  0
LWPOLYLINE
  5
39f
100
AcDbEntity
  8
Layer_1
 62
7
100
AcDbPolyline
 90
3
 70
0
 10
135.994140
 20
182.867623
 30
0.0
 10
135.994140
 20
179.665059
 30
0.0
 10
135.001952
 20
179.665059
 30
0.0
  0
SPLINE
  5
3a0
100
AcDbEntity
  8
Layer_1
 62
7
100
AcDbSpline
 70
8
 71
3
 72
8
 73
4
 74
0
 40
0
 40
0
 40
0
 40
0
 40
1
 40
1
 40
1
 40
1
 10
146.312898
 20
181.423437
 30
0.0
 10
146.151207
 20
180.824450
 30
0.0
 10
145.851714
 20
180.359592
 30
0.0
 10
145.414418
 20
180.028861
 30
0.0
  0
SPLINE
  5
3a1
100
AcDbEntity
  8
Layer_1
 62
7
100
AcDbSpline
 70
8
 71
3
 72
8
 73
4
 74
0
 40
0
 40
0
 40
0
 40
0
 40
1
 40
1
 40
1
 40
1
 10
145.414418
 20
180.028861
 30
0.0
 10
144.977119
 20
179.698132
 30
0.0
 10
144.418554
 20
179.532767
 30
0.0
 10
143.738721
 20
179.532767
 30
0.0
  0
SPLINE
  5
3a2
100
AcDbEntity
  8
Layer_1
 62
7
100
AcDbSpline
 70
8
 71
3
 72
8
 73
4
 74
0
 40
0
 40
0
 40
0
 40
0
 40
1
 40
1
 40
1
 40
1
 10
143.738721
 20
179.532767
 30
0.0
 10
142.882500
 20
179.532767
 30
0.0
 10
142.202667
 20
179.795513
 30
0.0
 10
141.699223
 20
180.321006
 30
0.0
  0
SPLINE
  5
3a3
100
AcDbEntity
  8
Layer_1
 62
7
100
AcDbSpline
 70
8
 71
3
 72
8
 73
4
 74
0
 40
0
 40
0
 40
0
 40
0
 40
1
 40
1
 40
1
 40
1
 10
141.699223
 20
180.321006
 30
0.0
 10
141.199453
 20
180.850172
 30
0.0
 10
140.949569
 20
181.590639
 30
0.0
 10
140.949569
 20
182.542405
 30
0.0
  0
SPLINE
  5
3a4
100
AcDbEntity
  8
Layer_1
 62
7
100
AcDbSpline
 70
8
 71
3
 72
8
 73
4
 74
0
 40
0
 40
0
 40
0
 40
0
 40
1
 40
1
 40
1
 40
1
 10
140.949569
 20
182.542405
 30
0.0
 10
140.949569
 20
183.527244
 30
0.0
 10
141.203128
 20
184.291596
 30
0.0
 10
141.710248
 20
184.835461
 30
0.0
  0
SPLINE
  5
3a5
100
AcDbEntity
  8
Layer_1
 62
7
100
AcDbSpline
 70
8
 71
3
 72
8
 73
4
 74
0
 40
0
 40
0
 40
0
 40
0
 40
1
 40
1
 40
1
 40
1
 10
141.710248
 20
184.835461
 30
0.0
 10
142.217366
 20
185.379328
 30
0.0
 10
142.875150
 20
185.651262
 30
0.0
 10
143.683598
 20
185.651262
 30
0.0
  0
SPLINE
  5
3a6
100
AcDbEntity
  8
Layer_1
 62
7
100
AcDbSpline
 70
8
 71
3
 72
8
 73
4
 74
0
 40
0
 40
0
 40
0
 40
0
 40
1
 40
1
 40
1
 40
1
 10
143.683598
 20
185.651262
 30
0.0
 10
144.466325
 20
185.651262
 30
0.0
 10
145.105736
 20
185.384840
 30
0.0
 10
145.601830
 20
184.851998
 30
0.0
  0
SPLINE
  5
3a7
100
AcDbEntity
  8
Layer_1
 62
7
100
AcDbSpline
 70
8
 71
3
 72
8
 73
4
 74
0
 40
0
 40
0
 40
0
 40
0
 40
1
 40
1
 40
1
 40
1
 10
145.601830
 20
184.851998
 30
0.0
 10
146.097924
 20
184.319157
 30
0.0
 10
146.345970
 20
183.569504
 30
0.0
 10
146.345970
 20
182.603040
 30
0.0
  0
SPLINE
  5
3a8
100
AcDbEntity
  8
Layer_1
 62
7
100
AcDbSpline
 70
8
 71
3
 72
8
 73
4
 74
0
 40
0
 40
0
 40
0
 40
0
 40
1
 40
1
 40
1
 40
1
 10
146.345970
 20
182.603040
 30
0.0
 10
146.345970
 20
182.544242
 30
0.0
 10
146.344136
 20
182.456048
 30
0.0
 10
146.340467
 20
182.338456
 30
0.0
  0
LWPOLYLINE
  5
3a9
100
AcDbEntity
  8
Layer_1
 62
7
100
AcDbPolyline
 90
2
 70
0
 10
145.287637
 20
181.550218
 30
0.0
 10
146.312898
 20
181.423437
 30
0.0
  0
SPLINE
  5
3aa
100
AcDbEntity
  8
Layer_1
 62
7
100
AcDbSpline
 70
8
 71
3
 72
8
 73
4
 74
0
 40
0
 40
0
 40
0
 40
0
 40
1
 40
1
 40
1
 40
1
 10
141.974840
 20
182.338456
 30
0.0
 10
142.011587
 20
181.695371
 30
0.0
 10
142.193488
 20
181.202951
 30
0.0
 10
142.520543
 20
180.861198
 30
0.0
  0
SPLINE
  5
3ab
100
AcDbEntity
  8
Layer_1
 62
7
100
AcDbSpline
 70
8
 71
3
 72
8
 73
4
 74
0
 40
0
 40
0
 40
0
 40
0
 40
1
 40
1
 40
1
 40
1
 10
142.520543
 20
180.861198
 30
0.0
 10
142.847598
 20
180.519444
 30
0.0
 10
143.255497
 20
180.348567
 30
0.0
 10
143.744241
 20
180.348567
 30
0.0
  0
SPLINE
  5
3ac
100
AcDbEntity
  8
Layer_1
 62
7
100
AcDbSpline
 70
8
 71
3
 72
8
 73
4
 74
0
 40
0
 40
0
 40
0
 40
0
 40
1
 40
1
 40
1
 40
1
 10
143.744241
 20
180.348567
 30
0.0
 10
144.108043
 20
180.348567
 30
0.0
 10
144.418561
 20
180.444111
 30
0.0
 10
144.675796
 20
180.635198
 30
0.0
  0
SPLINE
  5
3ad
100
AcDbEntity
  8
Layer_1
 62
7
100
AcDbSpline
 70
8
 71
3
 72
8
 73
4
 74
0
 40
0
 40
0
 40
0
 40
0
 40
1
 40
1
 40
1
 40
1
 10
144.675796
 20
180.635198
 30
0.0
 10
144.933029
 20
180.826288
 30
0.0
 10
145.136979
 20
181.131294
 30
0.0
 10
145.287645
 20
181.550218
 30
0.0
  0
LWPOLYLINE
  5
3ae
100
AcDbEntity
  8
Layer_1
 62
7
100
AcDbPolyline
 90
2
 70
0
 10
146.340467
 20
182.338456
 30
0.0
 10
141.974840
 20
182.338456
 30
0.0
  0
LWPOLYLINE
  5
3af
100
AcDbEntity
  8
Layer_1
 62
7
100
AcDbPolyline
 90
1
 70
1
 10
145.287645
 20
181.550218
 30
0.0
  0
SPLINE
  5
3b0
100
AcDbEntity
  8
Layer_1
 62
7
100
AcDbSpline
 70
8
 71
3
 72
8
 73
4
 74
0
 40
0
 40
0
 40
0
 40
0
 40
1
 40
1
 40
1
 40
1
 10
145.298662
 20
183.154254
 30
0.0
 10
145.254565
 20
183.646674
 30
0.0
 10
145.129623
 20
184.015989
 30
0.0
 10
144.923835
 20
184.262199
 30
0.0
  0
SPLINE
  5
3b1
100
AcDbEntity
  8
Layer_1
 62
7
100
AcDbSpline
 70
8
 71
3
 72
8
 73
4
 74
0
 40
0
 40
0
 40
0
 40
0
 40
1
 40
1
 40
1
 40
1
 10
144.923835
 20
184.262199
 30
0.0
 10
144.607804
 20
184.644374
 30
0.0
 10
144.198067
 20
184.835461
 30
0.0
 10
143.694623
 20
184.835461
 30
0.0
  0
SPLINE
  5
3b2
100
AcDbEntity
  8
Layer_1
 62
7
100
AcDbSpline
 70
8
 71
3
 72
8
 73
4
 74
0
 40
0
 40
0
 40
0
 40
0
 40
1
 40
1
 40
1
 40
1
 10
143.694623
 20
184.835461
 30
0.0
 10
143.238953
 20
184.835461
 30
0.0
 10
142.854939
 20
184.682959
 30
0.0
 10
142.542582
 20
184.377954
 30
0.0
  0
SPLINE
  5
3b3
100
AcDbEntity
  8
Layer_1
 62
7
100
AcDbSpline
 70
8
 71
3
 72
8
 73
4
 74
0
 40
0
 40
0
 40
0
 40
0
 40
1
 40
1
 40
1
 40
1
 10
142.542582
 20
184.377954
 30
0.0
 10
142.233902
 20
184.072948
 30
0.0
 10
142.063025
 20
183.665048
 30
0.0
 10
142.029952
 20
183.154254
 30
0.0
  0
LWPOLYLINE
  5
3b4
100
AcDbEntity
  8
Layer_1
 62
7
100
AcDbPolyline
 90
2
 70
0
 10
142.029952
 20
183.154254
 30
0.0
 10
145.298662
 20
183.154254
 30
0.0
  0
LWPOLYLINE
  5
3b5
100
AcDbEntity
  8
Layer_1
 62
7
100
AcDbPolyline
 90
1
 70
1
 10
142.029952
 20
183.154254
 30
0.0
  0
SPLINE
  5
3b6
100
AcDbEntity
  8
Layer_1
 62
7
100
AcDbSpline
 70
8
 71
3
 72
8
 73
4
 74
0
 40
0
 40
0
 40
0
 40
0
 40
1
 40
1
 40
1
 40
1
 10
148.451615
 20
184.686633
 30
0.0
 10
148.881564
 20
185.329719
 30
0.0
 10
149.502601
 20
185.651262
 30
0.0
 10
150.314726
 20
185.651262
 30
0.0
  0
SPLINE
  5
3b7
100
AcDbEntity
  8
Layer_1
 62
7
100
AcDbSpline
 70
8
 71
3
 72
8
 73
4
 74
0
 40
0
 40
0
 40
0
 40
0
 40
1
 40
1
 40
1
 40
1
 10
150.314726
 20
185.651262
 30
0.0
 10
150.667503
 20
185.651262
 30
0.0
 10
150.990883
 20
185.586953
 30
0.0
 10
151.284863
 20
185.458336
 30
0.0
  0
SPLINE
  5
3b8
100
AcDbEntity
  8
Layer_1
 62
7
100
AcDbSpline
 70
8
 71
3
 72
8
 73
4
 74
0
 40
0
 40
0
 40
0
 40
0
 40
1
 40
1
 40
1
 40
1
 10
151.284863
 20
185.458336
 30
0.0
 10
151.582521
 20
185.333394
 30
0.0
 10
151.804845
 20
185.168029
 30
0.0
 10
151.951835
 20
184.962242
 30
0.0
  0
SPLINE
  5
3b9
100
AcDbEntity
  8
Layer_1
 62
7
100
AcDbSpline
 70
8
 71
3
 72
8
 73
4
 74
0
 40
0
 40
0
 40
0
 40
0
 40
1
 40
1
 40
1
 40
1
 10
151.951835
 20
184.962242
 30
0.0
 10
152.098825
 20
184.756454
 30
0.0
 10
152.201719
 20
184.512082
 30
0.0
 10
152.260516
 20
184.229126
 30
0.0
  0
SPLINE
  5
3ba
100
AcDbEntity
  8
Layer_1
 62
7
100
AcDbSpline
 70
8
 71
3
 72
8
 73
4
 74
0
 40
0
 40
0
 40
0
 40
0
 40
1
 40
1
 40
1
 40
1
 10
152.260516
 20
184.229126
 30
0.0
 10
152.297264
 20
184.045387
 30
0.0
 10
152.315637
 20
183.723845
 30
0.0
 10
152.315637
 20
183.264498
 30
0.0
  0
LWPOLYLINE
  5
3bb
100
AcDbEntity
  8
Layer_1
 62
7
100
AcDbPolyline
 90
4
 70
0
 10
147.558646
 20
179.665059
 30
0.0
 10
147.558646
 20
185.518970
 30
0.0
 10
148.451615
 20
185.518970
 30
0.0
 10
148.451615
 20
184.686633
 30
0.0
  0
SPLINE
  5
3bc
100
AcDbEntity
  8
Layer_1
 62
7
100
AcDbSpline
 70
8
 71
3
 72
8
 73
4
 74
0
 40
0
 40
0
 40
0
 40
0
 40
1
 40
1
 40
1
 40
1
 10
151.323450
 20
183.225914
 30
0.0
 10
151.323450
 20
183.630137
 30
0.0
 10
151.284865
 20
183.931468
 30
0.0
 10
151.207694
 20
184.129908
 30
0.0
  0
SPLINE
  5
3bd
100
AcDbEntity
  8
Layer_1
 62
7
100
AcDbSpline
 70
8
 71
3
 72
8
 73
4
 74
0
 40
0
 40
0
 40
0
 40
0
 40
1
 40
1
 40
1
 40
1
 10
151.207694
 20
184.129908
 30
0.0
 10
151.130524
 20
184.332019
 30
0.0
 10
150.992720
 20
184.491872
 30
0.0
 10
150.794283
 20
184.609465
 30
0.0
  0
SPLINE
  5
3be
100
AcDbEntity
  8
Layer_1
 62
7
100
AcDbSpline
 70
8
 71
3
 72
8
 73
4
 74
0
 40
0
 40
0
 40
0
 40
0
 40
1
 40
1
 40
1
 40
1
 10
150.794283
 20
184.609465
 30
0.0
 10
150.599520
 20
184.730732
 30
0.0
 10
150.369846
 20
184.791366
 30
0.0
 10
150.105263
 20
184.791366
 30
0.0
  0
SPLINE
  5
3bf
100
AcDbEntity
  8
Layer_1
 62
7
100
AcDbSpline
 70
8
 71
3
 72
8
 73
4
 74
0
 40
0
 40
0
 40
0
 40
0
 40
1
 40
1
 40
1
 40
1
 10
150.105263
 20
184.791366
 30
0.0
 10
149.682663
 20
184.791366
 30
0.0
 10
149.317023
 20
184.657236
 30
0.0
 10
149.008343
 20
184.388977
 30
0.0
  0
SPLINE
  5
3c0
100
AcDbEntity
  8
Layer_1
 62
7
100
AcDbSpline
 70
8
 71
3
 72
8
 73
4
 74
0
 40
0
 40
0
 40
0
 40
0
 40
1
 40
1
 40
1
 40
1
 10
149.008343
 20
184.388977
 30
0.0
 10
148.703336
 20
184.120720
 30
0.0
 10
148.550833
 20
183.611764
 30
0.0
 10
148.550833
 20
182.862112
 30
0.0
  0
LWPOLYLINE
  5
3c1
100
AcDbEntity
  8
Layer_1
 62
7
100
AcDbPolyline
 90
4
 70
0
 10
152.315637
 20
183.264498
 30
0.0
 10
152.315637
 20
179.665059
 30
0.0
 10
151.323450
 20
179.665059
 30
0.0
 10
151.323450
 20
183.225914
 30
0.0
  0
SPLINE
  5
3c2
100
AcDbEntity
  8
Layer_1
 62
7
100
AcDbSpline
 70
8
 71
3
 72
8
 73
4
 74
0
 40
0
 40
0
 40
0
 40
0
 40
1
 40
1
 40
1
 40
1
 10
155.694591
 20
181.654948
 30
0.0
 10
155.690922
 20
181.787239
 30
0.0
 10
155.689088
 20
181.886458
 30
0.0
 10
155.689088
 20
181.952604
 30
0.0
  0
SPLINE
  5
3c3
100
AcDbEntity
  8
Layer_1
 62
7
100
AcDbSpline
 70
8
 71
3
 72
8
 73
4
 74
0
 40
0
 40
0
 40
0
 40
0
 40
1
 40
1
 40
1
 40
1
 10
155.689088
 20
181.952604
 30
0.0
 10
155.689088
 20
182.342130
 30
0.0
 10
155.744209
 20
182.678373
 30
0.0
 10
155.854452
 20
182.961330
 30
0.0
  0
SPLINE
  5
3c4
100
AcDbEntity
  8
Layer_1
 62
7
100
AcDbSpline
 70
8
 71
3
 72
8
 73
4
 74
0
 40
0
 40
0
 40
0
 40
0
 40
1
 40
1
 40
1
 40
1
 10
155.854452
 20
182.961330
 30
0.0
 10
155.935298
 20
183.174466
 30
0.0
 10
156.065753
 20
183.389440
 30
0.0
 10
156.245816
 20
183.606252
 30
0.0
  0
SPLINE
  5
3c5
100
AcDbEntity
  8
Layer_1
 62
7
100
AcDbSpline
 70
8
 71
3
 72
8
 73
4
 74
0
 40
0
 40
0
 40
0
 40
0
 40
1
 40
1
 40
1
 40
1
 10
156.245816
 20
183.606252
 30
0.0
 10
156.378108
 20
183.764267
 30
0.0
 10
156.615130
 20
183.993940
 30
0.0
 10
156.956884
 20
184.295272
 30
0.0
  0
SPLINE
  5
3c6
100
AcDbEntity
  8
Layer_1
 62
7
100
AcDbSpline
 70
8
 71
3
 72
8
 73
4
 74
0
 40
0
 40
0
 40
0
 40
0
 40
1
 40
1
 40
1
 40
1
 10
156.956884
 20
184.295272
 30
0.0
 10
157.302313
 20
184.600277
 30
0.0
 10
157.526474
 20
184.842812
 30
0.0
 10
157.629367
 20
185.022876
 30
0.0
  0
SPLINE
  5
3c7
100
AcDbEntity
  8
Layer_1
 62
7
100
AcDbSpline
 70
8
 71
3
 72
8
 73
4
 74
0
 40
0
 40
0
 40
0
 40
0
 40
1
 40
1
 40
1
 40
1
 10
157.629367
 20
185.022876
 30
0.0
 10
157.732262
 20
185.202939
 30
0.0
 10
157.783709
 20
185.399540
 30
0.0
 10
157.783709
 20
185.612678
 30
0.0
  0
SPLINE
  5
3c8
100
AcDbEntity
  8
Layer_1
 62
7
100
AcDbSpline
 70
8
 71
3
 72
8
 73
4
 74
0
 40
0
 40
0
 40
0
 40
0
 40
1
 40
1
 40
1
 40
1
 10
157.783709
 20
185.612678
 30
0.0
 10
157.783709
 20
185.998528
 30
0.0
 10
157.633043
 20
186.336607
 30
0.0
 10
157.331711
 20
186.626913
 30
0.0
  0
SPLINE
  5
3c9
100
AcDbEntity
  8
Layer_1
 62
7
100
AcDbSpline
 70
8
 71
3
 72
8
 73
4
 74
0
 40
0
 40
0
 40
0
 40
0
 40
1
 40
1
 40
1
 40
1
 10
157.331711
 20
186.626913
 30
0.0
 10
157.030381
 20
186.920895
 30
0.0
 10
156.661066
 20
187.067886
 30
0.0
 10
156.223768
 20
187.067886
 30
0.0
  0
SPLINE
  5
3ca
100
AcDbEntity
  8
Layer_1
 62
7
100
AcDbSpline
 70
8
 71
3
 72
8
 73
4
 74
0
 40
0
 40
0
 40
0
 40
0
 40
1
 40
1
 40
1
 40
1
 10
156.223768
 20
187.067886
 30
0.0
 10
155.801169
 20
187.067886
 30
0.0
 10
155.448391
 20
186.935594
 30
0.0
 10
155.165435
 20
186.671011
 30
0.0
  0
SPLINE
  5
3cb
100
AcDbEntity
  8
Layer_1
 62
7
100
AcDbSpline
 70
8
 71
3
 72
8
 73
4
 74
0
 40
0
 40
0
 40
0
 40
0
 40
1
 40
1
 40
1
 40
1
 10
155.165435
 20
186.671011
 30
0.0
 10
154.882477
 20
186.406428
 30
0.0
 10
154.696901
 20
185.993016
 30
0.0
 10
154.608707
 20
185.430777
 30
0.0
  0
LWPOLYLINE
  5
3cc
100
AcDbEntity
  8
Layer_1
 62
7
100
AcDbPolyline
 90
3
 70
0
 10
148.550833
 20
182.862112
 30
0.0
 10
148.550833
 20
179.665059
 30
0.0
 10
147.558646
 20
179.665059
 30
0.0
  0
SPLINE
  5
3cd
100
AcDbEntity
  8
Layer_1
 62
7
100
AcDbSpline
 70
8
 71
3
 72
8
 73
4
 74
0
 40
0
 40
0
 40
0
 40
0
 40
1
 40
1
 40
1
 40
1
 10
153.588958
 20
185.552043
 30
0.0
 10
153.680826
 20
186.305372
 30
0.0
 10
153.952759
 20
186.882311
 30
0.0
 10
154.404755
 20
187.282860
 30
0.0
  0
SPLINE
  5
3ce
100
AcDbEntity
  8
Layer_1
 62
7
100
AcDbSpline
 70
8
 71
3
 72
8
 73
4
 74
0
 40
0
 40
0
 40
0
 40
0
 40
1
 40
1
 40
1
 40
1
 10
154.404755
 20
187.282860
 30
0.0
 10
154.860428
 20
187.683411
 30
0.0
 10
155.461253
 20
187.883686
 30
0.0
 10
156.207232
 20
187.883686
 30
0.0
  0
SPLINE
  5
3cf
100
AcDbEntity
  8
Layer_1
 62
7
100
AcDbSpline
 70
8
 71
3
 72
8
 73
4
 74
0
 40
0
 40
0
 40
0
 40
0
 40
1
 40
1
 40
1
 40
1
 10
156.207232
 20
187.883686
 30
0.0
 10
156.997308
 20
187.883686
 30
0.0
 10
157.627531
 20
187.668711
 30
0.0
 10
158.097902
 20
187.238762
 30
0.0
  0
SPLINE
  5
3d0
100
AcDbEntity
  8
Layer_1
 62
7
100
AcDbSpline
 70
8
 71
3
 72
8
 73
4
 74
0
 40
0
 40
0
 40
0
 40
0
 40
1
 40
1
 40
1
 40
1
 10
158.097902
 20
187.238762
 30
0.0
 10
158.568273
 20
186.808814
 30
0.0
 10
158.803459
 20
186.288834
 30
0.0
 10
158.803459
 20
185.678823
 30
0.0
  0
SPLINE
  5
3d1
100
AcDbEntity
  8
Layer_1
 62
7
100
AcDbSpline
 70
8
 71
3
 72
8
 73
4
 74
0
 40
0
 40
0
 40
0
 40
0
 40
1
 40
1
 40
1
 40
1
 10
158.803459
 20
185.678823
 30
0.0
 10
158.803459
 20
185.326044
 30
0.0
 10
158.720775
 20
185.000826
 30
0.0
 10
158.555409
 20
184.703170
 30
0.0
  0
SPLINE
  5
3d2
100
AcDbEntity
  8
Layer_1
 62
7
100
AcDbSpline
 70
8
 71
3
 72
8
 73
4
 74
0
 40
0
 40
0
 40
0
 40
0
 40
1
 40
1
 40
1
 40
1
 10
158.555409
 20
184.703170
 30
0.0
 10
158.390044
 20
184.405513
 30
0.0
 10
158.066665
 20
184.043549
 30
0.0
 10
157.585272
 20
183.617275
 30
0.0
  0
SPLINE
  5
3d3
100
AcDbEntity
  8
Layer_1
 62
7
100
AcDbSpline
 70
8
 71
3
 72
8
 73
4
 74
0
 40
0
 40
0
 40
0
 40
0
 40
1
 40
1
 40
1
 40
1
 10
157.585272
 20
183.617275
 30
0.0
 10
157.261891
 20
183.330643
 30
0.0
 10
157.050591
 20
183.119344
 30
0.0
 10
156.951373
 20
182.983378
 30
0.0
  0
SPLINE
  5
3d4
100
AcDbEntity
  8
Layer_1
 62
7
100
AcDbSpline
 70
8
 71
3
 72
8
 73
4
 74
0
 40
0
 40
0
 40
0
 40
0
 40
1
 40
1
 40
1
 40
1
 10
156.951373
 20
182.983378
 30
0.0
 10
156.852154
 20
182.847410
 30
0.0
 10
156.778659
 20
182.691232
 30
0.0
 10
156.730887
 20
182.514843
 30
0.0
  0
SPLINE
  5
3d5
100
AcDbEntity
  8
Layer_1
 62
7
100
AcDbSpline
 70
8
 71
3
 72
8
 73
4
 74
0
 40
0
 40
0
 40
0
 40
0
 40
1
 40
1
 40
1
 40
1
 10
156.730887
 20
182.514843
 30
0.0
 10
156.683114
 20
182.338454
 30
0.0
 10
156.655553
 20
182.051823
 30
0.0
 10
156.648205
 20
181.654948
 30
0.0
  0
LWPOLYLINE
  5
3d6
100
AcDbEntity
  8
Layer_1
 62
7
100
AcDbPolyline
 90
2
 70
0
 10
154.608707
 20
185.430777
 30
0.0
 10
153.588958
 20
185.552043
 30
0.0
  0
LWPOLYLINE
  5
3d7
100
AcDbEntity
  8
Layer_1
 62
7
100
AcDbPolyline
 90
2
 70
0
 10
156.648205
 20
181.654948
 30
0.0
 10
155.694591
 20
181.654948
 30
0.0
  0
LWPOLYLINE
  5
3d8
100
AcDbEntity
  8
Layer_1
 62
7
100
AcDbPolyline
 90
4
 70
1
 10
155.633957
 20
179.665059
 30
0.0
 10
155.633957
 20
180.795052
 30
0.0
 10
156.763950
 20
180.795052
 30
0.0
 10
156.763950
 20
179.665059
 30
0.0
  0
SPLINE
  5
3d9
100
AcDbEntity
  8
Layer_1
 62
7
100
AcDbSpline
 70
8
 71
3
 72
8
 73
4
 74
0
 40
0
 40
0
 40
0
 40
0
 40
1
 40
1
 40
1
 40
1
 10
128.207959
 20
237.092936
 30
0.0
 10
128.340251
 20
236.538046
 30
0.0
 10
128.454168
 20
235.986831
 30
0.0
 10
128.549711
 20
235.439290
 30
0.0
  0
SPLINE
  5
3da
100
AcDbEntity
  8
Layer_1
 62
7
100
AcDbSpline
 70
8
 71
3
 72
8
 73
4
 74
0
 40
0
 40
0
 40
0
 40
0
 40
1
 40
1
 40
1
 40
1
 10
128.549711
 20
235.439290
 30
0.0
 10
128.755499
 20
236.302861
 30
0.0
 10
128.876766
 20
236.800793
 30
0.0
 10
128.913513
 20
236.933085
 30
0.0
  0
LWPOLYLINE
  5
3db
100
AcDbEntity
  8
Layer_1
 62
7
100
AcDbPolyline
 90
4
 70
0
 10
128.026056
 20
234.309297
 30
0.0
 10
125.881827
 20
242.390119
 30
0.0
 10
126.978747
 20
242.390119
 30
0.0
 10
128.207959
 20
237.092936
 30
0.0
  0
SPLINE
  5
3dc
100
AcDbEntity
  8
Layer_1
 62
7
100
AcDbSpline
 70
8
 71
3
 72
8
 73
4
 74
0
 40
0
 40
0
 40
0
 40
0
 40
1
 40
1
 40
1
 40
1
 10
132.898802
 20
238.300100
 30
0.0
 10
133.189110
 20
237.285862
 30
0.0
 10
133.398573
 20
236.332258
 30
0.0
 10
133.527190
 20
235.439290
 30
0.0
  0
SPLINE
  5
3dd
100
AcDbEntity
  8
Layer_1
 62
7
100
AcDbSpline
 70
8
 71
3
 72
8
 73
4
 74
0
 40
0
 40
0
 40
0
 40
0
 40
1
 40
1
 40
1
 40
1
 10
133.527190
 20
235.439290
 30
0.0
 10
133.630083
 20
235.950082
 30
0.0
 10
133.764212
 20
236.536208
 30
0.0
 10
133.929576
 20
237.197668
 30
0.0
  0
LWPOLYLINE
  5
3de
100
AcDbEntity
  8
Layer_1
 62
7
100
AcDbPolyline
 90
4
 70
0
 10
128.913513
 20
236.933085
 30
0.0
 10
130.451406
 20
242.390119
 30
0.0
 10
131.741250
 20
242.390119
 30
0.0
 10
132.898802
 20
238.300100
 30
0.0
  0
SPLINE
  5
3df
100
AcDbEntity
  8
Layer_1
 62
7
100
AcDbSpline
 70
8
 71
3
 72
8
 73
4
 74
0
 40
0
 40
0
 40
0
 40
0
 40
1
 40
1
 40
1
 40
1
 10
131.322327
 20
240.466376
 30
0.0
 10
131.179011
 20
240.980844
 30
0.0
 10
131.094491
 20
241.296874
 30
0.0
 10
131.068767
 20
241.414468
 30
0.0
  0
SPLINE
  5
3e0
100
AcDbEntity
  8
Layer_1
 62
7
100
AcDbSpline
 70
8
 71
3
 72
8
 73
4
 74
0
 40
0
 40
0
 40
0
 40
0
 40
1
 40
1
 40
1
 40
1
 10
131.068767
 20
241.414468
 30
0.0
 10
130.984248
 20
241.043315
 30
0.0
 10
130.905241
 20
240.727285
 30
0.0
 10
130.831745
 20
240.466376
 30
0.0
  0
LWPOLYLINE
  5
3e1
100
AcDbEntity
  8
Layer_1
 62
7
100
AcDbPolyline
 90
6
 70
0
 10
133.929576
 20
237.197668
 30
0.0
 10
135.197372
 20
242.390119
 30
0.0
 10
136.272242
 20
242.390119
 30
0.0
 10
134.056357
 20
234.309297
 30
0.0
 10
133.025583
 20
234.309297
 30
0.0
 10
131.322327
 20
240.466376
 30
0.0
  0
SPLINE
  5
3e2
100
AcDbEntity
  8
Layer_1
 62
7
100
AcDbSpline
 70
8
 71
3
 72
8
 73
4
 74
0
 40
0
 40
0
 40
0
 40
0
 40
1
 40
1
 40
1
 40
1
 10
140.544165
 20
235.031390
 30
0.0
 10
140.176689
 20
234.719035
 30
0.0
 10
139.822074
 20
234.498549
 30
0.0
 10
139.480320
 20
234.369931
 30
0.0
  0
SPLINE
  5
3e3
100
AcDbEntity
  8
Layer_1
 62
7
100
AcDbSpline
 70
8
 71
3
 72
8
 73
4
 74
0
 40
0
 40
0
 40
0
 40
0
 40
1
 40
1
 40
1
 40
1
 10
139.480320
 20
234.369931
 30
0.0
 10
139.142241
 20
234.241314
 30
0.0
 10
138.778438
 20
234.177005
 30
0.0
 10
138.388911
 20
234.177005
 30
0.0
  0
SPLINE
  5
3e4
100
AcDbEntity
  8
Layer_1
 62
7
100
AcDbSpline
 70
8
 71
3
 72
8
 73
4
 74
0
 40
0
 40
0
 40
0
 40
0
 40
1
 40
1
 40
1
 40
1
 10
138.388911
 20
234.177005
 30
0.0
 10
137.745828
 20
234.177005
 30
0.0
 10
137.251571
 20
234.333183
 30
0.0
 10
136.906142
 20
234.645540
 30
0.0
  0
SPLINE
  5
3e5
100
AcDbEntity
  8
Layer_1
 62
7
100
AcDbSpline
 70
8
 71
3
 72
8
 73
4
 74
0
 40
0
 40
0
 40
0
 40
0
 40
1
 40
1
 40
1
 40
1
 10
136.906142
 20
234.645540
 30
0.0
 10
136.560714
 20
234.961569
 30
0.0
 10
136.388000
 20
235.363956
 30
0.0
 10
136.388000
 20
235.852701
 30
0.0
  0
SPLINE
  5
3e6
100
AcDbEntity
  8
Layer_1
 62
7
100
AcDbSpline
 70
8
 71
3
 72
8
 73
4
 74
0
 40
0
 40
0
 40
0
 40
0
 40
1
 40
1
 40
1
 40
1
 10
136.388000
 20
235.852701
 30
0.0
 10
136.388000
 20
236.139333
 30
0.0
 10
136.452308
 20
236.400242
 30
0.0
 10
136.580924
 20
236.635429
 30
0.0
  0
SPLINE
  5
3e7
100
AcDbEntity
  8
Layer_1
 62
7
100
AcDbSpline
 70
8
 71
3
 72
8
 73
4
 74
0
 40
0
 40
0
 40
0
 40
0
 40
1
 40
1
 40
1
 40
1
 10
136.580924
 20
236.635429
 30
0.0
 10
136.713215
 20
236.874287
 30
0.0
 10
136.884093
 20
237.065375
 30
0.0
 10
137.093556
 20
237.208691
 30
0.0
  0
SPLINE
  5
3e8
100
AcDbEntity
  8
Layer_1
 62
7
100
AcDbSpline
 70
8
 71
3
 72
8
 73
4
 74
0
 40
0
 40
0
 40
0
 40
0
 40
1
 40
1
 40
1
 40
1
 10
137.093556
 20
237.208691
 30
0.0
 10
137.306692
 20
237.352007
 30
0.0
 10
137.545552
 20
237.460413
 30
0.0
 10
137.810135
 20
237.533909
 30
0.0
  0
SPLINE
  5
3e9
100
AcDbEntity
  8
Layer_1
 62
7
100
AcDbSpline
 70
8
 71
3
 72
8
 73
4
 74
0
 40
0
 40
0
 40
0
 40
0
 40
1
 40
1
 40
1
 40
1
 10
137.810135
 20
237.533909
 30
0.0
 10
138.004899
 20
237.585356
 30
0.0
 10
138.298881
 20
237.634965
 30
0.0
 10
138.692082
 20
237.682737
 30
0.0
  0
SPLINE
  5
3ea
100
AcDbEntity
  8
Layer_1
 62
7
100
AcDbSpline
 70
8
 71
3
 72
8
 73
4
 74
0
 40
0
 40
0
 40
0
 40
0
 40
1
 40
1
 40
1
 40
1
 10
138.692082
 20
237.682737
 30
0.0
 10
139.493182
 20
237.778281
 30
0.0
 10
140.082982
 20
237.892199
 30
0.0
 10
140.461483
 20
238.024491
 30
0.0
  0
SPLINE
  5
3eb
100
AcDbEntity
  8
Layer_1
 62
7
100
AcDbSpline
 70
8
 71
3
 72
8
 73
4
 74
0
 40
0
 40
0
 40
0
 40
0
 40
1
 40
1
 40
1
 40
1
 10
140.461483
 20
238.024491
 30
0.0
 10
140.465152
 20
238.160457
 30
0.0
 10
140.466986
 20
238.246814
 30
0.0
 10
140.466986
 20
238.283563
 30
0.0
  0
SPLINE
  5
3ec
100
AcDbEntity
  8
Layer_1
 62
7
100
AcDbSpline
 70
8
 71
3
 72
8
 73
4
 74
0
 40
0
 40
0
 40
0
 40
0
 40
1
 40
1
 40
1
 40
1
 10
140.466986
 20
238.283563
 30
0.0
 10
140.466986
 20
238.687788
 30
0.0
 10
140.373279
 20
238.972583
 30
0.0
 10
140.185866
 20
239.137948
 30
0.0
  0
SPLINE
  5
3ed
100
AcDbEntity
  8
Layer_1
 62
7
100
AcDbSpline
 70
8
 71
3
 72
8
 73
4
 74
0
 40
0
 40
0
 40
0
 40
0
 40
1
 40
1
 40
1
 40
1
 10
140.185866
 20
239.137948
 30
0.0
 10
139.932307
 20
239.362108
 30
0.0
 10
139.555644
 20
239.474188
 30
0.0
 10
139.055876
 20
239.474188
 30
0.0
  0
SPLINE
  5
3ee
100
AcDbEntity
  8
Layer_1
 62
7
100
AcDbSpline
 70
8
 71
3
 72
8
 73
4
 74
0
 40
0
 40
0
 40
0
 40
0
 40
1
 40
1
 40
1
 40
1
 10
139.055876
 20
239.474188
 30
0.0
 10
138.589179
 20
239.474188
 30
0.0
 10
138.243751
 20
239.391506
 30
0.0
 10
138.019590
 20
239.226141
 30
0.0
  0
SPLINE
  5
3ef
100
AcDbEntity
  8
Layer_1
 62
7
100
AcDbSpline
 70
8
 71
3
 72
8
 73
4
 74
0
 40
0
 40
0
 40
0
 40
0
 40
1
 40
1
 40
1
 40
1
 10
138.019590
 20
239.226141
 30
0.0
 10
137.799104
 20
239.064451
 30
0.0
 10
137.635577
 20
238.775981
 30
0.0
 10
137.529008
 20
238.360732
 30
0.0
  0
LWPOLYLINE
  5
3f0
100
AcDbEntity
  8
Layer_1
 62
7
100
AcDbPolyline
 90
3
 70
0
 10
130.831745
 20
240.466376
 30
0.0
 10
129.117464
 20
234.309297
 30
0.0
 10
128.026056
 20
234.309297
 30
0.0
  0
SPLINE
  5
3f1
100
AcDbEntity
  8
Layer_1
 62
7
100
AcDbSpline
 70
8
 71
3
 72
8
 73
4
 74
0
 40
0
 40
0
 40
0
 40
0
 40
1
 40
1
 40
1
 40
1
 10
136.558868
 20
238.493023
 30
0.0
 10
136.647062
 20
238.908273
 30
0.0
 10
136.792215
 20
239.242677
 30
0.0
 10
136.994327
 20
239.496236
 30
0.0
  0
SPLINE
  5
3f2
100
AcDbEntity
  8
Layer_1
 62
7
100
AcDbSpline
 70
8
 71
3
 72
8
 73
4
 74
0
 40
0
 40
0
 40
0
 40
0
 40
1
 40
1
 40
1
 40
1
 10
136.994327
 20
239.496236
 30
0.0
 10
137.196441
 20
239.753471
 30
0.0
 10
137.488586
 20
239.950071
 30
0.0
 10
137.870762
 20
240.086037
 30
0.0
  0
SPLINE
  5
3f3
100
AcDbEntity
  8
Layer_1
 62
7
100
AcDbSpline
 70
8
 71
3
 72
8
 73
4
 74
0
 40
0
 40
0
 40
0
 40
0
 40
1
 40
1
 40
1
 40
1
 10
137.870762
 20
240.086037
 30
0.0
 10
138.252939
 20
240.225679
 30
0.0
 10
138.695748
 20
240.295500
 30
0.0
 10
139.199190
 20
240.295500
 30
0.0
  0
SPLINE
  5
3f4
100
AcDbEntity
  8
Layer_1
 62
7
100
AcDbSpline
 70
8
 71
3
 72
8
 73
4
 74
0
 40
0
 40
0
 40
0
 40
0
 40
1
 40
1
 40
1
 40
1
 10
139.199190
 20
240.295500
 30
0.0
 10
139.698960
 20
240.295500
 30
0.0
 10
140.105022
 20
240.236703
 30
0.0
 10
140.417377
 20
240.119110
 30
0.0
  0
SPLINE
  5
3f5
100
AcDbEntity
  8
Layer_1
 62
7
100
AcDbSpline
 70
8
 71
3
 72
8
 73
4
 74
0
 40
0
 40
0
 40
0
 40
0
 40
1
 40
1
 40
1
 40
1
 10
140.417377
 20
240.119110
 30
0.0
 10
140.729733
 20
240.001519
 30
0.0
 10
140.959406
 20
239.852690
 30
0.0
 10
141.106397
 20
239.672626
 30
0.0
  0
SPLINE
  5
3f6
100
AcDbEntity
  8
Layer_1
 62
7
100
AcDbSpline
 70
8
 71
3
 72
8
 73
4
 74
0
 40
0
 40
0
 40
0
 40
0
 40
1
 40
1
 40
1
 40
1
 10
141.106397
 20
239.672626
 30
0.0
 10
141.253389
 20
239.496237
 30
0.0
 10
141.356282
 20
239.272076
 30
0.0
 10
141.415078
 20
239.000142
 30
0.0
  0
SPLINE
  5
3f7
100
AcDbEntity
  8
Layer_1
 62
7
100
AcDbSpline
 70
8
 71
3
 72
8
 73
4
 74
0
 40
0
 40
0
 40
0
 40
0
 40
1
 40
1
 40
1
 40
1
 10
141.415078
 20
239.000142
 30
0.0
 10
141.448151
 20
238.831103
 30
0.0
 10
141.464687
 20
238.526098
 30
0.0
 10
141.464687
 20
238.085126
 30
0.0
  0
LWPOLYLINE
  5
3f8
100
AcDbEntity
  8
Layer_1
 62
7
100
AcDbPolyline
 90
2
 70
0
 10
137.529008
 20
238.360732
 30
0.0
 10
136.558868
 20
238.493023
 30
0.0
  0
SPLINE
  5
3f9
100
AcDbEntity
  8
Layer_1
 62
7
100
AcDbSpline
 70
8
 71
3
 72
8
 73
4
 74
0
 40
0
 40
0
 40
0
 40
0
 40
1
 40
1
 40
1
 40
1
 10
141.464687
 20
236.762206
 30
0.0
 10
141.464687
 20
235.839839
 30
0.0
 10
141.484899
 20
235.255551
 30
0.0
 10
141.525322
 20
235.009342
 30
0.0
  0
SPLINE
  5
3fa
100
AcDbEntity
  8
Layer_1
 62
7
100
AcDbSpline
 70
8
 71
3
 72
8
 73
4
 74
0
 40
0
 40
0
 40
0
 40
0
 40
1
 40
1
 40
1
 40
1
 10
141.525322
 20
235.009342
 30
0.0
 10
141.569419
 20
234.766807
 30
0.0
 10
141.653939
 20
234.533459
 30
0.0
 10
141.778880
 20
234.309297
 30
0.0
  0
LWPOLYLINE
  5
3fb
100
AcDbEntity
  8
Layer_1
 62
7
100
AcDbPolyline
 90
2
 70
0
 10
141.464687
 20
238.085126
 30
0.0
 10
141.464687
 20
236.762206
 30
0.0
  0
SPLINE
  5
3fc
100
AcDbEntity
  8
Layer_1
 62
7
100
AcDbSpline
 70
8
 71
3
 72
8
 73
4
 74
0
 40
0
 40
0
 40
0
 40
0
 40
1
 40
1
 40
1
 40
1
 10
140.742595
 20
234.309297
 30
0.0
 10
140.639702
 20
234.515084
 30
0.0
 10
140.573556
 20
234.755782
 30
0.0
 10
140.544157
 20
235.031390
 30
0.0
  0
LWPOLYLINE
  5
3fd
100
AcDbEntity
  8
Layer_1
 62
7
100
AcDbPolyline
 90
2
 70
0
 10
141.778880
 20
234.309297
 30
0.0
 10
140.742595
 20
234.309297
 30
0.0
  0
SPLINE
  5
3fe
100
AcDbEntity
  8
Layer_1
 62
7
100
AcDbSpline
 70
8
 71
3
 72
8
 73
4
 74
0
 40
0
 40
0
 40
0
 40
0
 40
1
 40
1
 40
1
 40
1
 10
140.461483
 20
237.247278
 30
0.0
 10
140.101355
 20
237.100286
 30
0.0
 10
139.561164
 20
236.975343
 30
0.0
 10
138.840910
 20
236.872450
 30
0.0
  0
SPLINE
  5
3ff
100
AcDbEntity
  8
Layer_1
 62
7
100
AcDbSpline
 70
8
 71
3
 72
8
 73
4
 74
0
 40
0
 40
0
 40
0
 40
0
 40
1
 40
1
 40
1
 40
1
 10
138.840910
 20
236.872450
 30
0.0
 10
138.433009
 20
236.813655
 30
0.0
 10
138.144539
 20
236.747509
 30
0.0
 10
137.975500
 20
236.674013
 30
0.0
  0
SPLINE
  5
400
100
AcDbEntity
  8
Layer_1
 62
7
100
AcDbSpline
 70
8
 71
3
 72
8
 73
4
 74
0
 40
0
 40
0
 40
0
 40
0
 40
1
 40
1
 40
1
 40
1
 10
137.975500
 20
236.674013
 30
0.0
 10
137.806461
 20
236.600517
 30
0.0
 10
137.676007
 20
236.492111
 30
0.0
 10
137.584136
 20
236.348795
 30
0.0
  0
SPLINE
  5
401
100
AcDbEntity
  8
Layer_1
 62
7
100
AcDbSpline
 70
8
 71
3
 72
8
 73
4
 74
0
 40
0
 40
0
 40
0
 40
0
 40
1
 40
1
 40
1
 40
1
 10
137.584136
 20
236.348795
 30
0.0
 10
137.492268
 20
236.209153
 30
0.0
 10
137.446333
 20
236.052976
 30
0.0
 10
137.446333
 20
235.880263
 30
0.0
  0
SPLINE
  5
402
100
AcDbEntity
  8
Layer_1
 62
7
100
AcDbSpline
 70
8
 71
3
 72
8
 73
4
 74
0
 40
0
 40
0
 40
0
 40
0
 40
1
 40
1
 40
1
 40
1
 10
137.446333
 20
235.880263
 30
0.0
 10
137.446333
 20
235.615679
 30
0.0
 10
137.545552
 20
235.395193
 30
0.0
 10
137.743990
 20
235.218804
 30
0.0
  0
SPLINE
  5
403
100
AcDbEntity
  8
Layer_1
 62
7
100
AcDbSpline
 70
8
 71
3
 72
8
 73
4
 74
0
 40
0
 40
0
 40
0
 40
0
 40
1
 40
1
 40
1
 40
1
 10
137.743990
 20
235.218804
 30
0.0
 10
137.946101
 20
235.042414
 30
0.0
 10
138.240083
 20
234.954218
 30
0.0
 10
138.625936
 20
234.954218
 30
0.0
  0
SPLINE
  5
404
100
AcDbEntity
  8
Layer_1
 62
7
100
AcDbSpline
 70
8
 71
3
 72
8
 73
4
 74
0
 40
0
 40
0
 40
0
 40
0
 40
1
 40
1
 40
1
 40
1
 10
138.625936
 20
234.954218
 30
0.0
 10
139.008111
 20
234.954218
 30
0.0
 10
139.348027
 20
235.036902
 30
0.0
 10
139.645685
 20
235.202268
 30
0.0
  0
SPLINE
  5
405
100
AcDbEntity
  8
Layer_1
 62
7
100
AcDbSpline
 70
8
 71
3
 72
8
 73
4
 74
0
 40
0
 40
0
 40
0
 40
0
 40
1
 40
1
 40
1
 40
1
 10
139.645685
 20
235.202268
 30
0.0
 10
139.943341
 20
235.371307
 30
0.0
 10
140.161989
 20
235.600979
 30
0.0
 10
140.301629
 20
235.891285
 30
0.0
  0
SPLINE
  5
406
100
AcDbEntity
  8
Layer_1
 62
7
100
AcDbSpline
 70
8
 71
3
 72
8
 73
4
 74
0
 40
0
 40
0
 40
0
 40
0
 40
1
 40
1
 40
1
 40
1
 10
140.301629
 20
235.891285
 30
0.0
 10
140.408198
 20
236.115447
 30
0.0
 10
140.461483
 20
236.446177
 30
0.0
 10
140.461483
 20
236.883475
 30
0.0
  0
LWPOLYLINE
  5
407
100
AcDbEntity
  8
Layer_1
 62
7
100
AcDbPolyline
 90
1
 70
1
 10
140.544157
 20
235.031390
 30
0.0
  0
LWPOLYLINE
  5
408
100
AcDbEntity
  8
Layer_1
 62
7
100
AcDbPolyline
 90
2
 70
0
 10
140.461483
 20
236.883475
 30
0.0
 10
140.461483
 20
237.247278
 30
0.0
  0
SPLINE
  5
409
100
AcDbEntity
  8
Layer_1
 62
7
100
AcDbSpline
 70
8
 71
3
 72
8
 73
4
 74
0
 40
0
 40
0
 40
0
 40
0
 40
1
 40
1
 40
1
 40
1
 10
145.312181
 20
234.320322
 30
0.0
 10
145.032900
 20
234.261526
 30
0.0
 10
144.783016
 20
234.232128
 30
0.0
 10
144.562530
 20
234.232128
 30
0.0
  0
SPLINE
  5
40a
100
AcDbEntity
  8
Layer_1
 62
7
100
AcDbSpline
 70
8
 71
3
 72
8
 73
4
 74
0
 40
0
 40
0
 40
0
 40
0
 40
1
 40
1
 40
1
 40
1
 10
144.562530
 20
234.232128
 30
0.0
 10
144.202402
 20
234.232128
 30
0.0
 10
143.923119
 20
234.289087
 30
0.0
 10
143.724681
 20
234.403004
 30
0.0
  0
SPLINE
  5
40b
100
AcDbEntity
  8
Layer_1
 62
7
100
AcDbSpline
 70
8
 71
3
 72
8
 73
4
 74
0
 40
0
 40
0
 40
0
 40
0
 40
1
 40
1
 40
1
 40
1
 10
143.724681
 20
234.403004
 30
0.0
 10
143.526244
 20
234.516921
 30
0.0
 10
143.386602
 20
234.665749
 30
0.0
 10
143.305756
 20
234.849488
 30
0.0
  0
SPLINE
  5
40c
100
AcDbEntity
  8
Layer_1
 62
7
100
AcDbSpline
 70
8
 71
3
 72
8
 73
4
 74
0
 40
0
 40
0
 40
0
 40
0
 40
1
 40
1
 40
1
 40
1
 10
143.305756
 20
234.849488
 30
0.0
 10
143.224912
 20
235.036902
 30
0.0
 10
143.184490
 20
235.428265
 30
0.0
 10
143.184490
 20
236.023577
 30
0.0
  0
LWPOLYLINE
  5
40d
100
AcDbEntity
  8
Layer_1
 62
7
100
AcDbPolyline
 90
2
 70
0
 10
145.168865
 20
235.196754
 30
0.0
 10
145.312181
 20
234.320322
 30
0.0
  0
SPLINE
  5
40e
100
AcDbEntity
  8
Layer_1
 62
7
100
AcDbSpline
 70
8
 71
3
 72
8
 73
4
 74
0
 40
0
 40
0
 40
0
 40
0
 40
1
 40
1
 40
1
 40
1
 10
144.171166
 20
235.968456
 30
0.0
 10
144.171166
 20
235.685499
 30
0.0
 10
144.187702
 20
235.503598
 30
0.0
 10
144.220775
 20
235.422753
 30
0.0
  0
SPLINE
  5
40f
100
AcDbEntity
  8
Layer_1
 62
7
100
AcDbSpline
 70
8
 71
3
 72
8
 73
4
 74
0
 40
0
 40
0
 40
0
 40
0
 40
1
 40
1
 40
1
 40
1
 10
144.220775
 20
235.422753
 30
0.0
 10
144.257522
 20
235.341909
 30
0.0
 10
144.314481
 20
235.277600
 30
0.0
 10
144.391651
 20
235.229827
 30
0.0
  0
SPLINE
  5
410
100
AcDbEntity
  8
Layer_1
 62
7
100
AcDbSpline
 70
8
 71
3
 72
8
 73
4
 74
0
 40
0
 40
0
 40
0
 40
0
 40
1
 40
1
 40
1
 40
1
 10
144.391651
 20
235.229827
 30
0.0
 10
144.472497
 20
235.182056
 30
0.0
 10
144.586415
 20
235.158170
 30
0.0
 10
144.733405
 20
235.158170
 30
0.0
  0
SPLINE
  5
411
100
AcDbEntity
  8
Layer_1
 62
7
100
AcDbSpline
 70
8
 71
3
 72
8
 73
4
 74
0
 40
0
 40
0
 40
0
 40
0
 40
1
 40
1
 40
1
 40
1
 10
144.733405
 20
235.158170
 30
0.0
 10
144.843648
 20
235.158170
 30
0.0
 10
144.988802
 20
235.171031
 30
0.0
 10
145.168865
 20
235.196754
 30
0.0
  0
LWPOLYLINE
  5
412
100
AcDbEntity
  8
Layer_1
 62
7
100
AcDbPolyline
 90
12
 70
0
 10
143.184490
 20
236.023577
 30
0.0
 10
143.184490
 20
239.391506
 30
0.0
 10
142.456885
 20
239.391506
 30
0.0
 10
142.456885
 20
240.163208
 30
0.0
 10
143.184490
 20
240.163208
 30
0.0
 10
143.184490
 20
241.612905
 30
0.0
 10
144.171166
 20
242.208218
 30
0.0
 10
144.171166
 20
240.163208
 30
0.0
 10
145.168865
 20
240.163208
 30
0.0
 10
145.168865
 20
239.391506
 30
0.0
 10
144.171166
 20
239.391506
 30
0.0
 10
144.171166
 20
235.968456
 30
0.0
  0
LWPOLYLINE
  5
413
100
AcDbEntity
  8
Layer_1
 62
7
100
AcDbPolyline
 90
1
 70
1
 10
145.168865
 20
235.196754
 30
0.0
  0
SPLINE
  5
414
100
AcDbEntity
  8
Layer_1
 62
7
100
AcDbSpline
 70
8
 71
3
 72
8
 73
4
 74
0
 40
0
 40
0
 40
0
 40
0
 40
1
 40
1
 40
1
 40
1
 10
151.171604
 20
236.067675
 30
0.0
 10
151.009914
 20
235.468688
 30
0.0
 10
150.710420
 20
235.003830
 30
0.0
 10
150.273122
 20
234.673099
 30
0.0
  0
SPLINE
  5
415
100
AcDbEntity
  8
Layer_1
 62
7
100
AcDbSpline
 70
8
 71
3
 72
8
 73
4
 74
0
 40
0
 40
0
 40
0
 40
0
 40
1
 40
1
 40
1
 40
1
 10
150.273122
 20
234.673099
 30
0.0
 10
149.835824
 20
234.342370
 30
0.0
 10
149.277258
 20
234.177005
 30
0.0
 10
148.597425
 20
234.177005
 30
0.0
  0
SPLINE
  5
416
100
AcDbEntity
  8
Layer_1
 62
7
100
AcDbSpline
 70
8
 71
3
 72
8
 73
4
 74
0
 40
0
 40
0
 40
0
 40
0
 40
1
 40
1
 40
1
 40
1
 10
148.597425
 20
234.177005
 30
0.0
 10
147.741204
 20
234.177005
 30
0.0
 10
147.061371
 20
234.439751
 30
0.0
 10
146.557927
 20
234.965244
 30
0.0
  0
SPLINE
  5
417
100
AcDbEntity
  8
Layer_1
 62
7
100
AcDbSpline
 70
8
 71
3
 72
8
 73
4
 74
0
 40
0
 40
0
 40
0
 40
0
 40
1
 40
1
 40
1
 40
1
 10
146.557927
 20
234.965244
 30
0.0
 10
146.058159
 20
235.494410
 30
0.0
 10
145.808275
 20
236.234877
 30
0.0
 10
145.808275
 20
237.186643
 30
0.0
  0
SPLINE
  5
418
100
AcDbEntity
  8
Layer_1
 62
7
100
AcDbSpline
 70
8
 71
3
 72
8
 73
4
 74
0
 40
0
 40
0
 40
0
 40
0
 40
1
 40
1
 40
1
 40
1
 10
145.808275
 20
237.186643
 30
0.0
 10
145.808275
 20
238.171482
 30
0.0
 10
146.061834
 20
238.935834
 30
0.0
 10
146.568952
 20
239.479699
 30
0.0
  0
SPLINE
  5
419
100
AcDbEntity
  8
Layer_1
 62
7
100
AcDbSpline
 70
8
 71
3
 72
8
 73
4
 74
0
 40
0
 40
0
 40
0
 40
0
 40
1
 40
1
 40
1
 40
1
 10
146.568952
 20
239.479699
 30
0.0
 10
147.076070
 20
240.023566
 30
0.0
 10
147.733854
 20
240.295500
 30
0.0
 10
148.542305
 20
240.295500
 30
0.0
  0
SPLINE
  5
41a
100
AcDbEntity
  8
Layer_1
 62
7
100
AcDbSpline
 70
8
 71
3
 72
8
 73
4
 74
0
 40
0
 40
0
 40
0
 40
0
 40
1
 40
1
 40
1
 40
1
 10
148.542305
 20
240.295500
 30
0.0
 10
149.325030
 20
240.295500
 30
0.0
 10
149.964440
 20
240.029078
 30
0.0
 10
150.460534
 20
239.496236
 30
0.0
  0
SPLINE
  5
41b
100
AcDbEntity
  8
Layer_1
 62
7
100
AcDbSpline
 70
8
 71
3
 72
8
 73
4
 74
0
 40
0
 40
0
 40
0
 40
0
 40
1
 40
1
 40
1
 40
1
 10
150.460534
 20
239.496236
 30
0.0
 10
150.956629
 20
238.963395
 30
0.0
 10
151.204677
 20
238.213742
 30
0.0
 10
151.204677
 20
237.247278
 30
0.0
  0
SPLINE
  5
41c
100
AcDbEntity
  8
Layer_1
 62
7
100
AcDbSpline
 70
8
 71
3
 72
8
 73
4
 74
0
 40
0
 40
0
 40
0
 40
0
 40
1
 40
1
 40
1
 40
1
 10
151.204677
 20
237.247278
 30
0.0
 10
151.204677
 20
237.188480
 30
0.0
 10
151.202843
 20
237.100286
 30
0.0
 10
151.199174
 20
236.982694
 30
0.0
  0
LWPOLYLINE
  5
41d
100
AcDbEntity
  8
Layer_1
 62
7
100
AcDbPolyline
 90
2
 70
0
 10
150.146341
 20
236.194456
 30
0.0
 10
151.171604
 20
236.067675
 30
0.0
  0
SPLINE
  5
41e
100
AcDbEntity
  8
Layer_1
 62
7
100
AcDbSpline
 70
8
 71
3
 72
8
 73
4
 74
0
 40
0
 40
0
 40
0
 40
0
 40
1
 40
1
 40
1
 40
1
 10
146.833546
 20
236.982694
 30
0.0
 10
146.870293
 20
236.339609
 30
0.0
 10
147.052194
 20
235.847189
 30
0.0
 10
147.379249
 20
235.505436
 30
0.0
  0
SPLINE
  5
41f
100
AcDbEntity
  8
Layer_1
 62
7
100
AcDbSpline
 70
8
 71
3
 72
8
 73
4
 74
0
 40
0
 40
0
 40
0
 40
0
 40
1
 40
1
 40
1
 40
1
 10
147.379249
 20
235.505436
 30
0.0
 10
147.706304
 20
235.163682
 30
0.0
 10
148.114204
 20
234.992805
 30
0.0
 10
148.602950
 20
234.992805
 30
0.0
  0
SPLINE
  5
420
100
AcDbEntity
  8
Layer_1
 62
7
100
AcDbSpline
 70
8
 71
3
 72
8
 73
4
 74
0
 40
0
 40
0
 40
0
 40
0
 40
1
 40
1
 40
1
 40
1
 10
148.602950
 20
234.992805
 30
0.0
 10
148.966752
 20
234.992805
 30
0.0
 10
149.277270
 20
235.088349
 30
0.0
 10
149.534503
 20
235.279436
 30
0.0
  0
SPLINE
  5
421
100
AcDbEntity
  8
Layer_1
 62
7
100
AcDbSpline
 70
8
 71
3
 72
8
 73
4
 74
0
 40
0
 40
0
 40
0
 40
0
 40
1
 40
1
 40
1
 40
1
 10
149.534503
 20
235.279436
 30
0.0
 10
149.791738
 20
235.470526
 30
0.0
 10
149.995687
 20
235.775532
 30
0.0
 10
150.146352
 20
236.194456
 30
0.0
  0
LWPOLYLINE
  5
422
100
AcDbEntity
  8
Layer_1
 62
7
100
AcDbPolyline
 90
2
 70
0
 10
151.199174
 20
236.982694
 30
0.0
 10
146.833546
 20
236.982694
 30
0.0
  0
LWPOLYLINE
  5
423
100
AcDbEntity
  8
Layer_1
 62
7
100
AcDbPolyline
 90
1
 70
1
 10
150.146352
 20
236.194456
 30
0.0
  0
SPLINE
  5
424
100
AcDbEntity
  8
Layer_1
 62
7
100
AcDbSpline
 70
8
 71
3
 72
8
 73
4
 74
0
 40
0
 40
0
 40
0
 40
0
 40
1
 40
1
 40
1
 40
1
 10
150.157366
 20
237.798492
 30
0.0
 10
150.113269
 20
238.290912
 30
0.0
 10
149.988327
 20
238.660227
 30
0.0
 10
149.782539
 20
238.906437
 30
0.0
  0
SPLINE
  5
425
100
AcDbEntity
  8
Layer_1
 62
7
100
AcDbSpline
 70
8
 71
3
 72
8
 73
4
 74
0
 40
0
 40
0
 40
0
 40
0
 40
1
 40
1
 40
1
 40
1
 10
149.782539
 20
238.906437
 30
0.0
 10
149.466510
 20
239.288612
 30
0.0
 10
149.056774
 20
239.479699
 30
0.0
 10
148.553330
 20
239.479699
 30
0.0
  0
SPLINE
  5
426
100
AcDbEntity
  8
Layer_1
 62
7
100
AcDbSpline
 70
8
 71
3
 72
8
 73
4
 74
0
 40
0
 40
0
 40
0
 40
0
 40
1
 40
1
 40
1
 40
1
 10
148.553330
 20
239.479699
 30
0.0
 10
148.097657
 20
239.479699
 30
0.0
 10
147.713644
 20
239.327197
 30
0.0
 10
147.401289
 20
239.022192
 30
0.0
  0
SPLINE
  5
427
100
AcDbEntity
  8
Layer_1
 62
7
100
AcDbSpline
 70
8
 71
3
 72
8
 73
4
 74
0
 40
0
 40
0
 40
0
 40
0
 40
1
 40
1
 40
1
 40
1
 10
147.401289
 20
239.022192
 30
0.0
 10
147.092609
 20
238.717186
 30
0.0
 10
146.921731
 20
238.309286
 30
0.0
 10
146.888656
 20
237.798492
 30
0.0
  0
LWPOLYLINE
  5
428
100
AcDbEntity
  8
Layer_1
 62
7
100
AcDbPolyline
 90
2
 70
0
 10
146.888656
 20
237.798492
 30
0.0
 10
150.157366
 20
237.798492
 30
0.0
  0
LWPOLYLINE
  5
429
100
AcDbEntity
  8
Layer_1
 62
7
100
AcDbPolyline
 90
1
 70
1
 10
146.888656
 20
237.798492
 30
0.0
  0
SPLINE
  5
42a
100
AcDbEntity
  8
Layer_1
 62
7
100
AcDbSpline
 70
8
 71
3
 72
8
 73
4
 74
0
 40
0
 40
0
 40
0
 40
0
 40
1
 40
1
 40
1
 40
1
 10
153.299296
 20
239.275751
 30
0.0
 10
153.527132
 20
239.691000
 30
0.0
 10
153.736594
 20
239.964771
 30
0.0
 10
153.927681
 20
240.097062
 30
0.0
  0
SPLINE
  5
42b
100
AcDbEntity
  8
Layer_1
 62
7
100
AcDbSpline
 70
8
 71
3
 72
8
 73
4
 74
0
 40
0
 40
0
 40
0
 40
0
 40
1
 40
1
 40
1
 40
1
 10
153.927681
 20
240.097062
 30
0.0
 10
154.122445
 20
240.229354
 30
0.0
 10
154.335582
 20
240.295500
 30
0.0
 10
154.567092
 20
240.295500
 30
0.0
  0
SPLINE
  5
42c
100
AcDbEntity
  8
Layer_1
 62
7
100
AcDbSpline
 70
8
 71
3
 72
8
 73
4
 74
0
 40
0
 40
0
 40
0
 40
0
 40
1
 40
1
 40
1
 40
1
 10
154.567092
 20
240.295500
 30
0.0
 10
154.901497
 20
240.295500
 30
0.0
 10
155.241414
 20
240.188932
 30
0.0
 10
155.586841
 20
239.975796
 30
0.0
  0
LWPOLYLINE
  5
42d
100
AcDbEntity
  8
Layer_1
 62
7
100
AcDbPolyline
 90
4
 70
0
 10
152.406327
 20
234.309297
 30
0.0
 10
152.406327
 20
240.163208
 30
0.0
 10
153.299296
 20
240.163208
 30
0.0
 10
153.299296
 20
239.275751
 30
0.0
  0
SPLINE
  5
42e
100
AcDbEntity
  8
Layer_1
 62
7
100
AcDbSpline
 70
8
 71
3
 72
8
 73
4
 74
0
 40
0
 40
0
 40
0
 40
0
 40
1
 40
1
 40
1
 40
1
 10
155.245087
 20
239.055265
 30
0.0
 10
155.002552
 20
239.198581
 30
0.0
 10
154.760017
 20
239.270239
 30
0.0
 10
154.517483
 20
239.270239
 30
0.0
  0
SPLINE
  5
42f
100
AcDbEntity
  8
Layer_1
 62
7
100
AcDbSpline
 70
8
 71
3
 72
8
 73
4
 74
0
 40
0
 40
0
 40
0
 40
0
 40
1
 40
1
 40
1
 40
1
 10
154.517483
 20
239.270239
 30
0.0
 10
154.300671
 20
239.270239
 30
0.0
 10
154.105908
 20
239.204094
 30
0.0
 10
153.933195
 20
239.071802
 30
0.0
  0
SPLINE
  5
430
100
AcDbEntity
  8
Layer_1
 62
7
100
AcDbSpline
 70
8
 71
3
 72
8
 73
4
 74
0
 40
0
 40
0
 40
0
 40
0
 40
1
 40
1
 40
1
 40
1
 10
153.933195
 20
239.071802
 30
0.0
 10
153.760481
 20
238.943184
 30
0.0
 10
153.637375
 20
238.763120
 30
0.0
 10
153.563879
 20
238.531610
 30
0.0
  0
SPLINE
  5
431
100
AcDbEntity
  8
Layer_1
 62
7
100
AcDbSpline
 70
8
 71
3
 72
8
 73
4
 74
0
 40
0
 40
0
 40
0
 40
0
 40
1
 40
1
 40
1
 40
1
 10
153.563879
 20
238.531610
 30
0.0
 10
153.453636
 20
238.178832
 30
0.0
 10
153.398515
 20
237.792981
 30
0.0
 10
153.398515
 20
237.374055
 30
0.0
  0
LWPOLYLINE
  5
432
100
AcDbEntity
  8
Layer_1
 62
7
100
AcDbPolyline
 90
2
 70
0
 10
155.586841
 20
239.975796
 30
0.0
 10
155.245087
 20
239.055265
 30
0.0
  0
LWPOLYLINE
  5
433
100
AcDbEntity
  8
Layer_1
 62
7
100
AcDbPolyline
 90
3
 70
0
 10
153.398515
 20
237.374055
 30
0.0
 10
153.398515
 20
234.309297
 30
0.0
 10
152.406327
 20
234.309297
 30
0.0
  0
LWPOLYLINE
  5
434
100
AcDbEntity
  8
Layer_1
 62
7
100
AcDbPolyline
 90
4
 70
1
 10
34.528229
 20
123.255800
 30
0.0
 10
94.028355
 20
123.255800
 30
0.0
 10
94.028355
 20
45.413530
 30
0.0
 10
34.528229
 20
45.413530
 30
0.0
  0
LWPOLYLINE
  5
435
100
AcDbEntity
  8
Layer_1
 62
7
100
AcDbPolyline
 90
9
 70
1
 10
32.289502
 20
271.408280
 30
0.0
 10
32.289502
 20
130.582250
 30
0.0
 10
91.368583
 20
130.582250
 30
0.0
 10
91.368583
 20
53.161140
 30
0.0
 10
116.266290
 20
53.161140
 30
0.0
 10
116.266290
 20
130.582250
 30
0.0
 10
175.345370
 20
130.582250
 30
0.0
 10
175.345370
 20
271.408280
 30
0.0
 10
32.289502
 20
271.408280
 30
0.0
  0
ENDSEC
  0
SECTION
  2
OBJECTS
  0
DICTIONARY
  5
C
330
0
100
AcDbDictionary
  3
ACAD_GROUP
350
D
  3
ACAD_MLINESTYLE
350
17
  0
DICTIONARY
  5
D
330
C
100
AcDbDictionary
  0
DICTIONARY
  5
1A
330
C
100
AcDbDictionary
  0
DICTIONARY
  5
17
330
C
100
AcDbDictionary
  3
STANDARD
350
18
  0
DICTIONARY
  5
19
330
C
100
AcDbDictionary
  0
ENDSEC
  0
EOF
